ISO-10303-21;
HEADER;
FILE_DESCRIPTION (( 'STEP AP214' ),
    '1' );
FILE_NAME ('2089270.stp',
    '2023-05-26T11:27:49',
    ( '' ),
    ( '' ),
    'SwSTEP 2.0',
    'SolidWorks 2022',
    '' );
FILE_SCHEMA (( 'AUTOMOTIVE_DESIGN' ));
ENDSEC;

DATA;
#1 = CYLINDRICAL_SURFACE ( 'NONE', #54, 14.15000000000000213 ) ;
#2 = AXIS2_PLACEMENT_3D ( 'NONE', #125, #110, #185 ) ;
#3 = DIRECTION ( 'NONE',  ( -0.000000000000000000, -1.000000000000000000, -0.000000000000000000 ) ) ;
#4 =( GEOMETRIC_REPRESENTATION_CONTEXT ( 3 ) GLOBAL_UNCERTAINTY_ASSIGNED_CONTEXT ( ( #156 ) ) GLOBAL_UNIT_ASSIGNED_CONTEXT ( ( #169, #76, #205 ) ) REPRESENTATION_CONTEXT ( 'NONE', 'WORKASPACE' ) );
#5 = DIRECTION ( 'NONE',  ( 1.000000000000000000, -4.898587196589420471E-17, 0.000000000000000000 ) ) ;
#6 = FACE_OUTER_BOUND ( 'NONE', #57, .T. ) ;
#7 =( NAMED_UNIT ( * ) SI_UNIT ( $, .STERADIAN. ) SOLID_ANGLE_UNIT ( ) );
#8 = PRODUCT_DEFINITION_CONTEXT ( 'detailed design', #89, 'design' ) ;
#9 = EDGE_LOOP ( 'NONE', ( #121 ) ) ;
#10 = EDGE_LOOP ( 'NONE', ( #160 ) ) ;
#11 = ORIENTED_EDGE ( 'NONE', *, *, #72, .F. ) ;
#12 = CIRCLE ( 'NONE', #42, 15.00000000000000000 ) ;
#13 = DIRECTION ( 'NONE',  ( -1.000000000000000000, 6.570922257487906296E-17, 0.000000000000000000 ) ) ;
#14 = PRESENTATION_STYLE_ASSIGNMENT (( #129 ) ) ;
#15 = CIRCLE ( 'NONE', #2, 14.15000000000000213 ) ;
#16 = FACE_OUTER_BOUND ( 'NONE', #10, .T. ) ;
#17 = DIRECTION ( 'NONE',  ( 4.898587196589420471E-17, 1.000000000000000000, -0.000000000000000000 ) ) ;
#18 = CIRCLE ( 'NONE', #56, 10.74999999999998934 ) ;
#19 = DIRECTION ( 'NONE',  ( -4.898587196589420471E-17, -1.000000000000000000, 0.000000000000000000 ) ) ;
#20 = PRODUCT_DEFINITION_SHAPE ( 'NONE', 'NONE',  #114 ) ;
#21 = CARTESIAN_POINT ( 'NONE',  ( 2.449293598294710852E-16, 5.000000000000001776, 0.000000000000000000 ) ) ;
#22 = CARTESIAN_POINT ( 'NONE',  ( 13.19999999999999929, 7.000000000000000888, 0.000000000000000000 ) ) ;
#23 = DIRECTION ( 'NONE',  ( -0.000000000000000000, -1.000000000000000000, -0.000000000000000000 ) ) ;
#24 = DIRECTION ( 'NONE',  ( -1.000000000000000000, 4.898587196589420471E-17, 0.000000000000000000 ) ) ;
#25 = EDGE_LOOP ( 'NONE', ( #111 ) ) ;
#26 = EDGE_CURVE ( 'NONE', #117, #117, #73, .T. ) ;
#27 = AXIS2_PLACEMENT_3D ( 'NONE', #51, #123, #188 ) ;
#28 = EDGE_LOOP ( 'NONE', ( #29 ) ) ;
#29 = ORIENTED_EDGE ( 'NONE', *, *, #200, .T. ) ;
#30 = AXIS2_PLACEMENT_3D ( 'NONE', #147, #163, #166 ) ;
#31 = DIRECTION ( 'NONE',  ( 4.898587196589420471E-17, 1.000000000000000000, -0.000000000000000000 ) ) ;
#32 = FACE_OUTER_BOUND ( 'NONE', #198, .T. ) ;
#33 = SURFACE_STYLE_FILL_AREA ( #109 ) ;
#34 = CARTESIAN_POINT ( 'NONE',  ( 4.898587196589417759E-16, 9.999999999999994671, 0.000000000000000000 ) ) ;
#35 = FACE_BOUND ( 'NONE', #91, .T. ) ;
#36 = ADVANCED_FACE ( 'NONE', ( #50, #149 ), #112, .F. ) ;
#37 = FACE_OUTER_BOUND ( 'NONE', #122, .T. ) ;
#38 = CARTESIAN_POINT ( 'NONE',  ( 4.898587196589417759E-16, 9.999999999999994671, 0.000000000000000000 ) ) ;
#39 = DIRECTION ( 'NONE',  ( 0.000000000000000000, 0.000000000000000000, -1.000000000000000000 ) ) ;
#40 =( GEOMETRIC_REPRESENTATION_CONTEXT ( 3 ) GLOBAL_UNCERTAINTY_ASSIGNED_CONTEXT ( ( #44 ) ) GLOBAL_UNIT_ASSIGNED_CONTEXT ( ( #107, #179, #182 ) ) REPRESENTATION_CONTEXT ( 'NONE', 'WORKASPACE' ) );
#41 = FILL_AREA_STYLE_COLOUR ( '', #148 ) ;
#42 = AXIS2_PLACEMENT_3D ( 'NONE', #64, #17, #128 ) ;
#43 = CYLINDRICAL_SURFACE ( 'NONE', #136, 10.74999999999999289 ) ;
#44 = UNCERTAINTY_MEASURE_WITH_UNIT (LENGTH_MEASURE( 1.000000000000000082E-05 ), #107, 'distance_accuracy_value', 'NONE');
#45 = ORIENTED_EDGE ( 'NONE', *, *, #66, .T. ) ;
#46 = ADVANCED_FACE ( 'NONE', ( #16, #165 ), #186, .T. ) ;
#47 = FILL_AREA_STYLE_COLOUR ( '', #146 ) ;
#48 = CIRCLE ( 'NONE', #133, 10.74999999999999822 ) ;
#49 = DIRECTION ( 'NONE',  ( 4.898587196589420471E-17, 1.000000000000000000, -0.000000000000000000 ) ) ;
#50 = FACE_BOUND ( 'NONE', #74, .T. ) ;
#51 = CARTESIAN_POINT ( 'NONE',  ( 2.839781855739764401E-16, 5.797144649618419798, 0.000000000000000000 ) ) ;
#52 = APPLICATION_PROTOCOL_DEFINITION ( 'draft international standard', 'automotive_design', 1998, #59 ) ;
#53 =( NAMED_UNIT ( * ) PLANE_ANGLE_UNIT ( ) SI_UNIT ( $, .RADIAN. ) );
#54 = AXIS2_PLACEMENT_3D ( 'NONE', #34, #31, #62 ) ;
#55 = CARTESIAN_POINT ( 'NONE',  ( -13.19999999999999929, 5.797144649618420686, 0.000000000000000000 ) ) ;
#56 = AXIS2_PLACEMENT_3D ( 'NONE', #126, #3, #67 ) ;
#57 = EDGE_LOOP ( 'NONE', ( #108 ) ) ;
#58 = EDGE_LOOP ( 'NONE', ( #106 ) ) ;
#59 = APPLICATION_CONTEXT ( 'automotive_design' ) ;
#60 = PRESENTATION_LAYER_ASSIGNMENT (  '', '', ( #65 ) ) ;
#61 = ORIENTED_EDGE ( 'NONE', *, *, #138, .T. ) ;
#62 = DIRECTION ( 'NONE',  ( -1.000000000000000000, 0.000000000000000000, 0.000000000000000000 ) ) ;
#63 = FACE_OUTER_BOUND ( 'NONE', #178, .T. ) ;
#64 = CARTESIAN_POINT ( 'NONE',  ( 4.898587196589419731E-16, 9.999999999999998224, 0.000000000000000000 ) ) ;
#65 = STYLED_ITEM ( 'NONE', ( #139 ), #187 ) ;
#66 = EDGE_CURVE ( 'NONE', #131, #131, #194, .T. ) ;
#67 = DIRECTION ( 'NONE',  ( 0.000000000000000000, 0.000000000000000000, -1.000000000000000000 ) ) ;
#68 = AXIS2_PLACEMENT_3D ( 'NONE', #22, #135, #24 ) ;
#69 = CARTESIAN_POINT ( 'NONE',  ( -14.15000000000000213, 5.000000000000002665, 0.000000000000000000 ) ) ;
#70 = CARTESIAN_POINT ( 'NONE',  ( -15.00000000000000000, 7.000000000000001776, 0.000000000000000000 ) ) ;
#71 =( LENGTH_UNIT ( ) NAMED_UNIT ( * ) SI_UNIT ( .MILLI., .METRE. ) );
#72 = EDGE_CURVE ( 'NONE', #132, #132, #18, .T. ) ;
#73 = CIRCLE ( 'NONE', #30, 15.00000000000000000 ) ;
#74 = EDGE_LOOP ( 'NONE', ( #11 ) ) ;
#75 = ORIENTED_EDGE ( 'NONE', *, *, #138, .F. ) ;
#76 =( NAMED_UNIT ( * ) PLANE_ANGLE_UNIT ( ) SI_UNIT ( $, .RADIAN. ) );
#77 = SURFACE_SIDE_STYLE ('',( #33 ) ) ;
#78 = DIRECTION ( 'NONE',  ( -1.000000000000000000, 0.000000000000000000, 0.000000000000000000 ) ) ;
#79 = PLANE ( 'NONE',  #171 ) ;
#80 = VERTEX_POINT ( 'NONE', #69 ) ;
#81 = CARTESIAN_POINT ( 'NONE',  ( 0.000000000000000000, 9.999999999999996447, 0.000000000000000000 ) ) ;
#82 = CARTESIAN_POINT ( 'NONE',  ( 0.000000000000000000, 0.000000000000000000, 0.000000000000000000 ) ) ;
#83 = VERTEX_POINT ( 'NONE', #55 ) ;
#84 = FACE_OUTER_BOUND ( 'NONE', #212, .T. ) ;
#85 = UNCERTAINTY_MEASURE_WITH_UNIT (LENGTH_MEASURE( 1.000000000000000082E-05 ), #71, 'distance_accuracy_value', 'NONE');
#86 = SURFACE_STYLE_USAGE ( .BOTH. , #177 ) ;
#87 = EDGE_LOOP ( 'NONE', ( #103 ) ) ;
#88 = CLOSED_SHELL ( 'NONE', ( #36, #150, #203, #174, #168, #46, #127, #195 ) ) ;
#89 = APPLICATION_CONTEXT ( 'automotive_design' ) ;
#90 = MANIFOLD_SOLID_BREP ( 'InnenPg16', #88 ) ;
#91 = EDGE_LOOP ( 'NONE', ( #137 ) ) ;
#92 = CIRCLE ( 'NONE', #119, 14.15000000000000213 ) ;
#93 = CARTESIAN_POINT ( 'NONE',  ( 3.429011037612594699E-16, 7.000000000000000888, 0.000000000000000000 ) ) ;
#94 = AXIS2_PLACEMENT_3D ( 'NONE', #120, #140, #211 ) ;
#95 = DIRECTION ( 'NONE',  ( -1.000000000000000000, 4.898587196589420471E-17, 0.000000000000000000 ) ) ;
#96 = CARTESIAN_POINT ( 'NONE',  ( 4.898587196589417759E-16, 9.999999999999994671, 0.000000000000000000 ) ) ;
#97 = CARTESIAN_POINT ( 'NONE',  ( -13.19999999999999929, 7.000000000000001776, 0.000000000000000000 ) ) ;
#98 = DIRECTION ( 'NONE',  ( 4.898587196589420471E-17, 1.000000000000000000, -0.000000000000000000 ) ) ;
#99 = CARTESIAN_POINT ( 'NONE',  ( 2.449293598294710852E-16, 5.000000000000001776, 0.000000000000000000 ) ) ;
#100 = FACE_BOUND ( 'NONE', #196, .T. ) ;
#101 = AXIS2_PLACEMENT_3D ( 'NONE', #167, #189, #95 ) ;
#102 = DIRECTION ( 'NONE',  ( 1.000000000000000000, -6.129764932780236264E-17, 0.000000000000000000 ) ) ;
#103 = ORIENTED_EDGE ( 'NONE', *, *, #200, .F. ) ;
#104 = APPLICATION_PROTOCOL_DEFINITION ( 'draft international standard', 'automotive_design', 1998, #89 ) ;
#105 = EDGE_CURVE ( 'NONE', #155, #155, #12, .T. ) ;
#106 = ORIENTED_EDGE ( 'NONE', *, *, #158, .T. ) ;
#107 =( LENGTH_UNIT ( ) NAMED_UNIT ( * ) SI_UNIT ( .MILLI., .METRE. ) );
#108 = ORIENTED_EDGE ( 'NONE', *, *, #206, .F. ) ;
#109 = FILL_AREA_STYLE ('',( #47 ) ) ;
#110 = DIRECTION ( 'NONE',  ( 4.898587196589420471E-17, 1.000000000000000000, -0.000000000000000000 ) ) ;
#111 = ORIENTED_EDGE ( 'NONE', *, *, #158, .F. ) ;
#112 = PLANE ( 'NONE',  #101 ) ;
#113 = FILL_AREA_STYLE ('',( #41 ) ) ;
#114 = PRODUCT_DEFINITION ( 'UNKNOWN', '', #144, #8 ) ;
#115 = DIRECTION ( 'NONE',  ( -1.000000000000000000, 0.000000000000000000, 0.000000000000000000 ) ) ;
#116 = STYLED_ITEM ( 'NONE', ( #14 ), #90 ) ;
#117 = VERTEX_POINT ( 'NONE', #70 ) ;
#118 = PRODUCT ( '2089270', '2089270', '', ( #159 ) ) ;
#119 = AXIS2_PLACEMENT_3D ( 'NONE', #21, #98, #173 ) ;
#120 = CARTESIAN_POINT ( 'NONE',  ( 0.000000000000000000, 0.000000000000000000, 0.000000000000000000 ) ) ;
#121 = ORIENTED_EDGE ( 'NONE', *, *, #26, .T. ) ;
#122 = EDGE_LOOP ( 'NONE', ( #213 ) ) ;
#123 = DIRECTION ( 'NONE',  ( 4.898587196589420471E-17, 1.000000000000000000, -0.000000000000000000 ) ) ;
#124 = PRESENTATION_LAYER_ASSIGNMENT (  '', '', ( #116 ) ) ;
#125 = CARTESIAN_POINT ( 'NONE',  ( -9.629649721936179265E-32, 0.000000000000000000, 0.000000000000000000 ) ) ;
#126 = CARTESIAN_POINT ( 'NONE',  ( 0.000000000000000000, -2.388061258337309554E-16, 0.000000000000000000 ) ) ;
#127 = ADVANCED_FACE ( 'NONE', ( #35, #63 ), #79, .F. ) ;
#128 = DIRECTION ( 'NONE',  ( -1.000000000000000000, 0.000000000000000000, 0.000000000000000000 ) ) ;
#129 = SURFACE_STYLE_USAGE ( .BOTH. , #77 ) ;
#130 = AXIS2_PLACEMENT_3D ( 'NONE', #38, #172, #115 ) ;
#131 = VERTEX_POINT ( 'NONE', #97 ) ;
#132 = VERTEX_POINT ( 'NONE', #209 ) ;
#133 = AXIS2_PLACEMENT_3D ( 'NONE', #81, #154, #39 ) ;
#134 = VERTEX_POINT ( 'NONE', #208 ) ;
#135 = DIRECTION ( 'NONE',  ( 4.898587196589420471E-17, 1.000000000000000000, -0.000000000000000000 ) ) ;
#136 = AXIS2_PLACEMENT_3D ( 'NONE', #82, #23, #170 ) ;
#137 = ORIENTED_EDGE ( 'NONE', *, *, #206, .T. ) ;
#138 = EDGE_CURVE ( 'NONE', #83, #83, #184, .T. ) ;
#139 = PRESENTATION_STYLE_ASSIGNMENT (( #86 ) ) ;
#140 = DIRECTION ( 'NONE',  ( 0.000000000000000000, 0.000000000000000000, 1.000000000000000000 ) ) ;
#141 = ORIENTED_EDGE ( 'NONE', *, *, #105, .T. ) ;
#142 = SHAPE_DEFINITION_REPRESENTATION ( #20, #187 ) ;
#143 = ORIENTED_EDGE ( 'NONE', *, *, #26, .F. ) ;
#144 = PRODUCT_DEFINITION_FORMATION_WITH_SPECIFIED_SOURCE ( 'ANY', '', #118, .NOT_KNOWN. ) ;
#145 = DIRECTION ( 'NONE',  ( 4.898587196589420471E-17, 1.000000000000000000, -0.000000000000000000 ) ) ;
#146 = COLOUR_RGB ( '',0.7529411764705882248, 0.7529411764705882248, 0.7529411764705882248 ) ;
#147 = CARTESIAN_POINT ( 'NONE',  ( 3.429011037612594206E-16, 7.000000000000000888, 0.000000000000000000 ) ) ;
#148 = COLOUR_RGB ( '',0.7529411764705882248, 0.7529411764705882248, 0.7529411764705882248 ) ;
#149 = FACE_OUTER_BOUND ( 'NONE', #25, .T. ) ;
#150 = ADVANCED_FACE ( 'NONE', ( #201, #199 ), #1, .T. ) ;
#151 = CARTESIAN_POINT ( 'NONE',  ( 15.00000000000000000, 9.999999999999996447, 0.000000000000000000 ) ) ;
#152 = AXIS2_PLACEMENT_3D ( 'NONE', #93, #49, #13 ) ;
#153 = VERTEX_POINT ( 'NONE', #193 ) ;
#154 = DIRECTION ( 'NONE',  ( -0.000000000000000000, -1.000000000000000000, -0.000000000000000000 ) ) ;
#155 = VERTEX_POINT ( 'NONE', #192 ) ;
#156 = UNCERTAINTY_MEASURE_WITH_UNIT (LENGTH_MEASURE( 1.000000000000000082E-05 ), #169, 'distance_accuracy_value', 'NONE');
#157 = CYLINDRICAL_SURFACE ( 'NONE', #130, 13.19999999999999929 ) ;
#158 = EDGE_CURVE ( 'NONE', #134, #134, #15, .T. ) ;
#159 = PRODUCT_CONTEXT ( 'NONE', #59, 'mechanical' ) ;
#160 = ORIENTED_EDGE ( 'NONE', *, *, #105, .F. ) ;
#161 = PRODUCT_RELATED_PRODUCT_CATEGORY ( 'part', '', ( #118 ) ) ;
#162 = MECHANICAL_DESIGN_GEOMETRIC_PRESENTATION_REPRESENTATION (  '', ( #116 ), #4 ) ;
#163 = DIRECTION ( 'NONE',  ( 4.898587196589420471E-17, 1.000000000000000000, -0.000000000000000000 ) ) ;
#164 = MECHANICAL_DESIGN_GEOMETRIC_PRESENTATION_REPRESENTATION (  '', ( #65 ), #40 ) ;
#165 = FACE_OUTER_BOUND ( 'NONE', #9, .T. ) ;
#166 = DIRECTION ( 'NONE',  ( -1.000000000000000000, 5.782411586589357392E-17, 0.000000000000000000 ) ) ;
#167 = CARTESIAN_POINT ( 'NONE',  ( 1.697728073973228417E-32, 3.465750441587015461E-16, 0.000000000000000000 ) ) ;
#168 = ADVANCED_FACE ( 'NONE', ( #32, #202 ), #191, .F. ) ;
#169 =( LENGTH_UNIT ( ) NAMED_UNIT ( * ) SI_UNIT ( .MILLI., .METRE. ) );
#170 = DIRECTION ( 'NONE',  ( 0.000000000000000000, 0.000000000000000000, -1.000000000000000000 ) ) ;
#171 = AXIS2_PLACEMENT_3D ( 'NONE', #151, #204, #5 ) ;
#172 = DIRECTION ( 'NONE',  ( 4.898587196589420471E-17, 1.000000000000000000, -0.000000000000000000 ) ) ;
#173 = DIRECTION ( 'NONE',  ( -1.000000000000000000, 6.129764932780236264E-17, 0.000000000000000000 ) ) ;
#174 = ADVANCED_FACE ( 'NONE', ( #84, #175 ), #157, .T. ) ;
#175 = FACE_OUTER_BOUND ( 'NONE', #181, .T. ) ;
#176 = FACE_OUTER_BOUND ( 'NONE', #28, .T. ) ;
#177 = SURFACE_SIDE_STYLE ('',( #190 ) ) ;
#178 = EDGE_LOOP ( 'NONE', ( #141 ) ) ;
#179 =( NAMED_UNIT ( * ) PLANE_ANGLE_UNIT ( ) SI_UNIT ( $, .RADIAN. ) );
#180 = AXIS2_PLACEMENT_3D ( 'NONE', #99, #19, #102 ) ;
#181 = EDGE_LOOP ( 'NONE', ( #61 ) ) ;
#182 =( NAMED_UNIT ( * ) SI_UNIT ( $, .STERADIAN. ) SOLID_ANGLE_UNIT ( ) );
#183 = EDGE_LOOP ( 'NONE', ( #45 ) ) ;
#184 = CIRCLE ( 'NONE', #27, 13.19999999999999929 ) ;
#185 = DIRECTION ( 'NONE',  ( -1.000000000000000000, 4.898587196589420471E-17, 0.000000000000000000 ) ) ;
#186 = CYLINDRICAL_SURFACE ( 'NONE', #207, 15.00000000000000000 ) ;
#187 = ADVANCED_BREP_SHAPE_REPRESENTATION ( '2089270', ( #90, #94 ), #197 ) ;
#188 = DIRECTION ( 'NONE',  ( -1.000000000000000000, 6.570922257487906296E-17, 0.000000000000000000 ) ) ;
#189 = DIRECTION ( 'NONE',  ( 4.898587196589420471E-17, 1.000000000000000000, -0.000000000000000000 ) ) ;
#190 = SURFACE_STYLE_FILL_AREA ( #113 ) ;
#191 = PLANE ( 'NONE',  #68 ) ;
#192 = CARTESIAN_POINT ( 'NONE',  ( -15.00000000000000000, 9.999999999999998224, 0.000000000000000000 ) ) ;
#193 = CARTESIAN_POINT ( 'NONE',  ( 0.000000000000000000, 9.999999999999996447, -10.74999999999999822 ) ) ;
#194 = CIRCLE ( 'NONE', #152, 13.19999999999999929 ) ;
#195 = ADVANCED_FACE ( 'NONE', ( #6, #37 ), #43, .F. ) ;
#196 = EDGE_LOOP ( 'NONE', ( #75 ) ) ;
#197 =( GEOMETRIC_REPRESENTATION_CONTEXT ( 3 ) GLOBAL_UNCERTAINTY_ASSIGNED_CONTEXT ( ( #85 ) ) GLOBAL_UNIT_ASSIGNED_CONTEXT ( ( #71, #53, #7 ) ) REPRESENTATION_CONTEXT ( 'NONE', 'WORKASPACE' ) );
#198 = EDGE_LOOP ( 'NONE', ( #143 ) ) ;
#199 = FACE_OUTER_BOUND ( 'NONE', #58, .T. ) ;
#200 = EDGE_CURVE ( 'NONE', #80, #80, #92, .T. ) ;
#201 = FACE_OUTER_BOUND ( 'NONE', #87, .T. ) ;
#202 = FACE_BOUND ( 'NONE', #183, .T. ) ;
#203 = ADVANCED_FACE ( 'NONE', ( #100, #176 ), #210, .T. ) ;
#204 = DIRECTION ( 'NONE',  ( -4.898587196589420471E-17, -1.000000000000000000, 0.000000000000000000 ) ) ;
#205 =( NAMED_UNIT ( * ) SI_UNIT ( $, .STERADIAN. ) SOLID_ANGLE_UNIT ( ) );
#206 = EDGE_CURVE ( 'NONE', #153, #153, #48, .T. ) ;
#207 = AXIS2_PLACEMENT_3D ( 'NONE', #96, #145, #78 ) ;
#208 = CARTESIAN_POINT ( 'NONE',  ( -14.15000000000000213, 6.931500883174030921E-16, 0.000000000000000000 ) ) ;
#209 = CARTESIAN_POINT ( 'NONE',  ( 0.000000000000000000, -2.388061258337309554E-16, -10.74999999999998934 ) ) ;
#210 = CONICAL_SURFACE ( 'NONE', #180, 14.15000000000000213, 0.8726646259971652109 ) ;
#211 = DIRECTION ( 'NONE',  ( 1.000000000000000000, 0.000000000000000000, 0.000000000000000000 ) ) ;
#212 = EDGE_LOOP ( 'NONE', ( #214 ) ) ;
#213 = ORIENTED_EDGE ( 'NONE', *, *, #72, .T. ) ;
#214 = ORIENTED_EDGE ( 'NONE', *, *, #66, .F. ) ;
ENDSEC;
END-ISO-10303-21;
