ISO-10303-21;
HEADER;
FILE_DESCRIPTION (( 'STEP AP214' ),
    '1' );
FILE_NAME ('2089505.stp',
    '2022-11-29T08:37:37',
    ( '' ),
    ( '' ),
    'SwSTEP 2.0',
    'SolidWorks 2020',
    '' );
FILE_SCHEMA (( 'AUTOMOTIVE_DESIGN' ));
ENDSEC;

DATA;
#1 = SURFACE_STYLE_USAGE ( .BOTH. , #42 ) ;
#2 =( LENGTH_UNIT ( ) NAMED_UNIT ( * ) SI_UNIT ( .MILLI., .METRE. ) );
#3 =( GEOMETRIC_REPRESENTATION_CONTEXT ( 3 ) GLOBAL_UNCERTAINTY_ASSIGNED_CONTEXT ( ( #109 ) ) GLOBAL_UNIT_ASSIGNED_CONTEXT ( ( #176, #159, #229 ) ) REPRESENTATION_CONTEXT ( 'NONE', 'WORKASPACE' ) );
#4 = CARTESIAN_POINT ( 'NONE',  ( -10.00000000000000000, 10.00000000000000000, 0.000000000000000000 ) ) ;
#5 = SURFACE_STYLE_USAGE ( .BOTH. , #217 ) ;
#6 = CLOSED_SHELL ( 'NONE', ( #128, #198, #37, #108, #155, #170, #79, #73 ) ) ;
#7 = DIRECTION ( 'NONE',  ( 1.836970198721027900E-17, 1.000000000000000000, -0.000000000000000000 ) ) ;
#8 = PRODUCT_DEFINITION_CONTEXT ( 'detailed design', #62, 'design' ) ;
#9 = CIRCLE ( 'NONE', #207, 8.000000000000001776 ) ;
#10 = EDGE_LOOP ( 'NONE', ( #184 ) ) ;
#11 =( GEOMETRIC_REPRESENTATION_CONTEXT ( 3 ) GLOBAL_UNCERTAINTY_ASSIGNED_CONTEXT ( ( #88 ) ) GLOBAL_UNIT_ASSIGNED_CONTEXT ( ( #161, #47, #143 ) ) REPRESENTATION_CONTEXT ( 'NONE', 'WORKASPACE' ) );
#12 = PRODUCT_CONTEXT ( 'NONE', #233, 'mechanical' ) ;
#13 = ORIENTED_EDGE ( 'NONE', *, *, #214, .T. ) ;
#14 = ORIENTED_EDGE ( 'NONE', *, *, #232, .T. ) ;
#15 = AXIS2_PLACEMENT_3D ( 'NONE', #61, #154, #101 ) ;
#16 = ORIENTED_EDGE ( 'NONE', *, *, #232, .F. ) ;
#17 = FACE_BOUND ( 'NONE', #106, .T. ) ;
#18 = FACE_OUTER_BOUND ( 'NONE', #48, .T. ) ;
#19 = DIRECTION ( 'NONE',  ( -1.000000000000000000, 1.836970198721027900E-17, 0.000000000000000000 ) ) ;
#20 = CYLINDRICAL_SURFACE ( 'NONE', #82, 8.000000000000001776 ) ;
#21 = FACE_OUTER_BOUND ( 'NONE', #10, .T. ) ;
#22 = CARTESIAN_POINT ( 'NONE',  ( -8.000000000000001776, 4.299999999999996270, 0.000000000000000000 ) ) ;
#23 = DIRECTION ( 'NONE',  ( -1.000000000000000000, 1.836970198721028208E-17, 0.000000000000000000 ) ) ;
#24 = EDGE_LOOP ( 'NONE', ( #44 ) ) ;
#25 = APPLICATION_PROTOCOL_DEFINITION ( 'draft international standard', 'automotive_design', 1998, #233 ) ;
#26 = ORIENTED_EDGE ( 'NONE', *, *, #30, .T. ) ;
#27 = DIRECTION ( 'NONE',  ( 0.000000000000000000, 0.000000000000000000, 1.000000000000000000 ) ) ;
#28 = FACE_OUTER_BOUND ( 'NONE', #163, .T. ) ;
#29 = SURFACE_STYLE_USAGE ( .BOTH. , #164 ) ;
#30 = EDGE_CURVE ( 'NONE', #121, #121, #160, .T. ) ;
#31 = EDGE_LOOP ( 'NONE', ( #66 ) ) ;
#32 = MECHANICAL_DESIGN_GEOMETRIC_PRESENTATION_REPRESENTATION (  '', ( #244 ), #11 ) ;
#33 = CARTESIAN_POINT ( 'NONE',  ( 7.000000000000000888, 7.000000000000000000, 0.000000000000000000 ) ) ;
#34 = SURFACE_STYLE_USAGE ( .BOTH. , #129 ) ;
#35 = FACE_BOUND ( 'NONE', #200, .T. ) ;
#36 = CARTESIAN_POINT ( 'NONE',  ( 1.836970198721027715E-16, 9.999999999999998224, 0.000000000000000000 ) ) ;
#37 = ADVANCED_FACE ( 'NONE', ( #235, #123 ), #178, .T. ) ;
#38 = CARTESIAN_POINT ( 'NONE',  ( -10.00000000000000000, 7.000000000000000000, 0.000000000000000000 ) ) ;
#39 = PRESENTATION_LAYER_ASSIGNMENT (  '', '', ( #148 ) ) ;
#40 = CARTESIAN_POINT ( 'NONE',  ( -7.000000000000000888, 7.000000000000000000, 0.000000000000000000 ) ) ;
#41 = DIRECTION ( 'NONE',  ( -1.836970198721027900E-17, -1.000000000000000000, 0.000000000000000000 ) ) ;
#42 = SURFACE_SIDE_STYLE ('',( #119 ) ) ;
#43 = DIRECTION ( 'NONE',  ( -1.836970198721027900E-17, -1.000000000000000000, 0.000000000000000000 ) ) ;
#44 = ORIENTED_EDGE ( 'NONE', *, *, #239, .T. ) ;
#45 = EDGE_LOOP ( 'NONE', ( #216 ) ) ;
#46 = CIRCLE ( 'NONE', #153, 7.000000000000000888 ) ;
#47 =( NAMED_UNIT ( * ) PLANE_ANGLE_UNIT ( ) SI_UNIT ( $, .RADIAN. ) );
#48 = EDGE_LOOP ( 'NONE', ( #14 ) ) ;
#49 = EDGE_LOOP ( 'NONE', ( #102 ) ) ;
#50 = CIRCLE ( 'NONE', #80, 10.00000000000000000 ) ;
#51 = UNCERTAINTY_MEASURE_WITH_UNIT (LENGTH_MEASURE( 1.000000000000000082E-05 ), #126, 'distance_accuracy_value', 'NONE');
#52 = FACE_OUTER_BOUND ( 'NONE', #31, .T. ) ;
#53 = COLOUR_RGB ( '',0.7529411764705882248, 0.7529411764705882248, 0.7529411764705882248 ) ;
#54 =( NAMED_UNIT ( * ) SI_UNIT ( $, .STERADIAN. ) SOLID_ANGLE_UNIT ( ) );
#55 = CARTESIAN_POINT ( 'NONE',  ( 0.000000000000000000, 0.000000000000000000, -0.000000000000000000 ) ) ;
#56 = SURFACE_STYLE_FILL_AREA ( #241 ) ;
#57 = CIRCLE ( 'NONE', #15, 10.00000000000000000 ) ;
#58 = FACE_OUTER_BOUND ( 'NONE', #165, .T. ) ;
#59 = PRODUCT_RELATED_PRODUCT_CATEGORY ( 'part', '', ( #183 ) ) ;
#60 = VERTEX_POINT ( 'NONE', #40 ) ;
#61 = CARTESIAN_POINT ( 'NONE',  ( 1.285879139104719746E-16, 7.000000000000000000, 0.000000000000000000 ) ) ;
#62 = APPLICATION_CONTEXT ( 'automotive_design' ) ;
#63 =( NAMED_UNIT ( * ) SI_UNIT ( $, .STERADIAN. ) SOLID_ANGLE_UNIT ( ) );
#64 =( GEOMETRIC_REPRESENTATION_CONTEXT ( 3 ) GLOBAL_UNCERTAINTY_ASSIGNED_CONTEXT ( ( #203 ) ) GLOBAL_UNIT_ASSIGNED_CONTEXT ( ( #150, #205, #114 ) ) REPRESENTATION_CONTEXT ( 'NONE', 'WORKASPACE' ) );
#65 = EDGE_CURVE ( 'NONE', #96, #96, #50, .T. ) ;
#66 = ORIENTED_EDGE ( 'NONE', *, *, #239, .F. ) ;
#67 = ORIENTED_EDGE ( 'NONE', *, *, #223, .F. ) ;
#68 = EDGE_LOOP ( 'NONE', ( #142 ) ) ;
#69 = PRESENTATION_LAYER_ASSIGNMENT (  '', '', ( #244 ) ) ;
#70 = CARTESIAN_POINT ( 'NONE',  ( 1.836970198721027962E-16, 10.00000000000000000, 0.000000000000000000 ) ) ;
#71 = CARTESIAN_POINT ( 'NONE',  ( 9.735942053221447532E-17, 5.299999999999999822, 0.000000000000000000 ) ) ;
#72 = CARTESIAN_POINT ( 'NONE',  ( 1.836970198721027715E-16, 9.999999999999998224, 0.000000000000000000 ) ) ;
#73 = ADVANCED_FACE ( 'NONE', ( #28, #107 ), #89, .F. ) ;
#74 = COLOUR_RGB ( '',0.7529411764705882248, 0.7529411764705882248, 0.7529411764705882248 ) ;
#75 = DIRECTION ( 'NONE',  ( 1.836970198721027900E-17, 1.000000000000000000, -0.000000000000000000 ) ) ;
#76 = DIRECTION ( 'NONE',  ( 1.836970198721027900E-17, 1.000000000000000000, -0.000000000000000000 ) ) ;
#77 = CARTESIAN_POINT ( 'NONE',  ( 0.000000000000000000, 9.999999999999998224, 0.000000000000000000 ) ) ;
#78 = CIRCLE ( 'NONE', #166, 7.000000000000000888 ) ;
#79 = ADVANCED_FACE ( 'NONE', ( #17, #151 ), #134, .F. ) ;
#80 = AXIS2_PLACEMENT_3D ( 'NONE', #70, #7, #199 ) ;
#81 = FILL_AREA_STYLE_COLOUR ( '', #210 ) ;
#82 = AXIS2_PLACEMENT_3D ( 'NONE', #137, #76, #174 ) ;
#83 = DIRECTION ( 'NONE',  ( 0.000000000000000000, 0.000000000000000000, -1.000000000000000000 ) ) ;
#84 = PRESENTATION_STYLE_ASSIGNMENT (( #29 ) ) ;
#85 = CARTESIAN_POINT ( 'NONE',  ( 0.000000000000000000, 0.000000000000000000, 0.000000000000000000 ) ) ;
#86 = CARTESIAN_POINT ( 'NONE',  ( 7.898971854500413161E-17, 4.299999999999996270, 0.000000000000000000 ) ) ;
#87 = PRESENTATION_LAYER_ASSIGNMENT (  '', '', ( #122 ) ) ;
#88 = UNCERTAINTY_MEASURE_WITH_UNIT (LENGTH_MEASURE( 1.000000000000000082E-05 ), #161, 'distance_accuracy_value', 'NONE');
#89 = CYLINDRICAL_SURFACE ( 'NONE', #197, 5.249999999999987566 ) ;
#90 = CYLINDRICAL_SURFACE ( 'NONE', #172, 7.000000000000000888 ) ;
#91 = AXIS2_PLACEMENT_3D ( 'NONE', #86, #43, #201 ) ;
#92 = DIRECTION ( 'NONE',  ( -1.000000000000000000, 0.000000000000000000, 0.000000000000000000 ) ) ;
#93 = DIRECTION ( 'NONE',  ( 1.836970198721027900E-17, 1.000000000000000000, -0.000000000000000000 ) ) ;
#94 = DIRECTION ( 'NONE',  ( 1.836970198721027900E-17, 1.000000000000000000, -0.000000000000000000 ) ) ;
#95 = AXIS2_PLACEMENT_3D ( 'NONE', #72, #93, #171 ) ;
#96 = VERTEX_POINT ( 'NONE', #4 ) ;
#97 = DIRECTION ( 'NONE',  ( 1.000000000000000000, 0.000000000000000000, 0.000000000000000000 ) ) ;
#98 = CARTESIAN_POINT ( 'NONE',  ( -7.000000000000000888, 5.299999999999999822, 0.000000000000000000 ) ) ;
#99 = CARTESIAN_POINT ( 'NONE',  ( -8.000000000000001776, 1.469576158976822813E-16, 0.000000000000000000 ) ) ;
#100 = CIRCLE ( 'NONE', #133, 8.000000000000001776 ) ;
#101 = DIRECTION ( 'NONE',  ( -1.000000000000000000, 0.000000000000000000, 0.000000000000000000 ) ) ;
#102 = ORIENTED_EDGE ( 'NONE', *, *, #181, .F. ) ;
#103 = ORIENTED_EDGE ( 'NONE', *, *, #65, .T. ) ;
#104 = EDGE_LOOP ( 'NONE', ( #220 ) ) ;
#105 = FILL_AREA_STYLE_COLOUR ( '', #215 ) ;
#106 = EDGE_LOOP ( 'NONE', ( #237 ) ) ;
#107 = FACE_OUTER_BOUND ( 'NONE', #185, .T. ) ;
#108 = ADVANCED_FACE ( 'NONE', ( #224, #188 ), #90, .T. ) ;
#109 = UNCERTAINTY_MEASURE_WITH_UNIT (LENGTH_MEASURE( 1.000000000000000082E-05 ), #176, 'distance_accuracy_value', 'NONE');
#110 = DIRECTION ( 'NONE',  ( -1.836970198721027900E-17, -1.000000000000000000, 0.000000000000000000 ) ) ;
#111 = CYLINDRICAL_SURFACE ( 'NONE', #95, 10.00000000000000000 ) ;
#112 = DIRECTION ( 'NONE',  ( 1.000000000000000000, -1.836970198721027900E-17, 0.000000000000000000 ) ) ;
#113 = AXIS2_PLACEMENT_3D ( 'NONE', #77, #41, #97 ) ;
#114 =( NAMED_UNIT ( * ) SI_UNIT ( $, .STERADIAN. ) SOLID_ANGLE_UNIT ( ) );
#115 = FACE_BOUND ( 'NONE', #127, .T. ) ;
#116 = VERTEX_POINT ( 'NONE', #99 ) ;
#117 = VERTEX_POINT ( 'NONE', #209 ) ;
#118 = AXIS2_PLACEMENT_3D ( 'NONE', #85, #27, #177 ) ;
#119 = SURFACE_STYLE_FILL_AREA ( #213 ) ;
#120 = EDGE_CURVE ( 'NONE', #211, #211, #46, .T. ) ;
#121 = VERTEX_POINT ( 'NONE', #194 ) ;
#122 = STYLED_ITEM ( 'NONE', ( #132 ), #198 ) ;
#123 = FACE_OUTER_BOUND ( 'NONE', #182, .T. ) ;
#124 = EDGE_LOOP ( 'NONE', ( #103 ) ) ;
#125 = CARTESIAN_POINT ( 'NONE',  ( 0.000000000000000000, -1.714505518806294244E-15, -0.000000000000000000 ) ) ;
#126 =( LENGTH_UNIT ( ) NAMED_UNIT ( * ) SI_UNIT ( .MILLI., .METRE. ) );
#127 = EDGE_LOOP ( 'NONE', ( #13 ) ) ;
#128 = ADVANCED_FACE ( 'NONE', ( #35, #58 ), #130, .F. ) ;
#129 = SURFACE_SIDE_STYLE ('',( #56 ) ) ;
#130 = PLANE ( 'NONE',  #219 ) ;
#131 = DIRECTION ( 'NONE',  ( -0.000000000000000000, -1.000000000000000000, -0.000000000000000000 ) ) ;
#132 = PRESENTATION_STYLE_ASSIGNMENT (( #34 ) ) ;
#133 = AXIS2_PLACEMENT_3D ( 'NONE', #147, #149, #243 ) ;
#134 = PLANE ( 'NONE',  #236 ) ;
#135 = DIRECTION ( 'NONE',  ( 1.836970198721027900E-17, 1.000000000000000000, -0.000000000000000000 ) ) ;
#136 = CARTESIAN_POINT ( 'NONE',  ( 0.000000000000000000, 0.000000000000000000, 0.000000000000000000 ) ) ;
#137 = CARTESIAN_POINT ( 'NONE',  ( 1.836970198721027715E-16, 9.999999999999998224, 0.000000000000000000 ) ) ;
#138 = FILL_AREA_STYLE ('',( #105 ) ) ;
#139 = STYLED_ITEM ( 'NONE', ( #157 ), #231 ) ;
#140 = ORIENTED_EDGE ( 'NONE', *, *, #181, .T. ) ;
#141 = PRESENTATION_STYLE_ASSIGNMENT (( #5 ) ) ;
#142 = ORIENTED_EDGE ( 'NONE', *, *, #214, .F. ) ;
#143 =( NAMED_UNIT ( * ) SI_UNIT ( $, .STERADIAN. ) SOLID_ANGLE_UNIT ( ) );
#144 = DIRECTION ( 'NONE',  ( -0.000000000000000000, -1.000000000000000000, -0.000000000000000000 ) ) ;
#145 = SURFACE_STYLE_FILL_AREA ( #162 ) ;
#146 =( GEOMETRIC_REPRESENTATION_CONTEXT ( 3 ) GLOBAL_UNCERTAINTY_ASSIGNED_CONTEXT ( ( #51 ) ) GLOBAL_UNIT_ASSIGNED_CONTEXT ( ( #126, #234, #54 ) ) REPRESENTATION_CONTEXT ( 'NONE', 'WORKASPACE' ) );
#147 = CARTESIAN_POINT ( 'NONE',  ( 7.898971854500413161E-17, 4.299999999999996270, 0.000000000000000000 ) ) ;
#148 = STYLED_ITEM ( 'NONE', ( #84 ), #73 ) ;
#149 = DIRECTION ( 'NONE',  ( 1.836970198721027900E-17, 1.000000000000000000, -0.000000000000000000 ) ) ;
#150 =( LENGTH_UNIT ( ) NAMED_UNIT ( * ) SI_UNIT ( .MILLI., .METRE. ) );
#151 = FACE_OUTER_BOUND ( 'NONE', #124, .T. ) ;
#152 = DIRECTION ( 'NONE',  ( 1.836970198721027900E-17, 1.000000000000000000, -0.000000000000000000 ) ) ;
#153 = AXIS2_PLACEMENT_3D ( 'NONE', #71, #152, #190 ) ;
#154 = DIRECTION ( 'NONE',  ( 1.836970198721027900E-17, 1.000000000000000000, -0.000000000000000000 ) ) ;
#155 = ADVANCED_FACE ( 'NONE', ( #52, #115 ), #189, .F. ) ;
#156 = CARTESIAN_POINT ( 'NONE',  ( 1.285879139104719746E-16, 7.000000000000000000, 0.000000000000000000 ) ) ;
#157 = PRESENTATION_STYLE_ASSIGNMENT (( #1 ) ) ;
#158 =( NAMED_UNIT ( * ) PLANE_ANGLE_UNIT ( ) SI_UNIT ( $, .RADIAN. ) );
#159 =( NAMED_UNIT ( * ) PLANE_ANGLE_UNIT ( ) SI_UNIT ( $, .RADIAN. ) );
#160 = CIRCLE ( 'NONE', #168, 5.249999999999989342 ) ;
#161 =( LENGTH_UNIT ( ) NAMED_UNIT ( * ) SI_UNIT ( .MILLI., .METRE. ) );
#162 = FILL_AREA_STYLE ('',( #81 ) ) ;
#163 = EDGE_LOOP ( 'NONE', ( #26 ) ) ;
#164 = SURFACE_SIDE_STYLE ('',( #145 ) ) ;
#165 = EDGE_LOOP ( 'NONE', ( #16 ) ) ;
#166 = AXIS2_PLACEMENT_3D ( 'NONE', #156, #135, #212 ) ;
#167 = DIRECTION ( 'NONE',  ( 0.000000000000000000, 0.000000000000000000, -1.000000000000000000 ) ) ;
#168 = AXIS2_PLACEMENT_3D ( 'NONE', #125, #144, #83 ) ;
#169 = FACE_OUTER_BOUND ( 'NONE', #49, .T. ) ;
#170 = ADVANCED_FACE ( 'NONE', ( #21, #206 ), #111, .T. ) ;
#171 = DIRECTION ( 'NONE',  ( -1.000000000000000000, 0.000000000000000000, 0.000000000000000000 ) ) ;
#172 = AXIS2_PLACEMENT_3D ( 'NONE', #36, #226, #92 ) ;
#173 = FILL_AREA_STYLE_COLOUR ( '', #74 ) ;
#174 = DIRECTION ( 'NONE',  ( -1.000000000000000000, 0.000000000000000000, 0.000000000000000000 ) ) ;
#175 =( GEOMETRIC_REPRESENTATION_CONTEXT ( 3 ) GLOBAL_UNCERTAINTY_ASSIGNED_CONTEXT ( ( #238 ) ) GLOBAL_UNIT_ASSIGNED_CONTEXT ( ( #2, #158, #63 ) ) REPRESENTATION_CONTEXT ( 'NONE', 'WORKASPACE' ) );
#176 =( LENGTH_UNIT ( ) NAMED_UNIT ( * ) SI_UNIT ( .MILLI., .METRE. ) );
#177 = DIRECTION ( 'NONE',  ( 1.000000000000000000, 0.000000000000000000, 0.000000000000000000 ) ) ;
#178 = CONICAL_SURFACE ( 'NONE', #91, 8.000000000000001776, 0.7853981633974471688 ) ;
#179 = SHAPE_DEFINITION_REPRESENTATION ( #230, #180 ) ;
#180 = ADVANCED_BREP_SHAPE_REPRESENTATION ( '2089505', ( #231, #118 ), #175 ) ;
#181 = EDGE_CURVE ( 'NONE', #228, #228, #100, .T. ) ;
#182 = EDGE_LOOP ( 'NONE', ( #140 ) ) ;
#183 = PRODUCT ( '2089505', '2089505', '', ( #12 ) ) ;
#184 = ORIENTED_EDGE ( 'NONE', *, *, #65, .F. ) ;
#185 = EDGE_LOOP ( 'NONE', ( #67 ) ) ;
#186 = AXIS2_PLACEMENT_3D ( 'NONE', #33, #94, #19 ) ;
#187 = MECHANICAL_DESIGN_GEOMETRIC_PRESENTATION_REPRESENTATION (  '', ( #148 ), #146 ) ;
#188 = FACE_OUTER_BOUND ( 'NONE', #45, .T. ) ;
#189 = PLANE ( 'NONE',  #186 ) ;
#190 = DIRECTION ( 'NONE',  ( -1.000000000000000000, 0.000000000000000000, 0.000000000000000000 ) ) ;
#191 = MECHANICAL_DESIGN_GEOMETRIC_PRESENTATION_REPRESENTATION (  '', ( #139 ), #3 ) ;
#192 = PRODUCT_DEFINITION ( 'UNKNOWN', '', #242, #8 ) ;
#193 = CARTESIAN_POINT ( 'NONE',  ( 10.00000000000000000, 9.999999999999998224, 0.000000000000000000 ) ) ;
#194 = CARTESIAN_POINT ( 'NONE',  ( 0.000000000000000000, -1.714505518806294244E-15, -5.249999999999989342 ) ) ;
#195 = CIRCLE ( 'NONE', #113, 5.249999999999987566 ) ;
#196 = VERTEX_POINT ( 'NONE', #38 ) ;
#197 = AXIS2_PLACEMENT_3D ( 'NONE', #55, #131, #167 ) ;
#198 = ADVANCED_FACE ( 'NONE', ( #169, #18 ), #20, .T. ) ;
#199 = DIRECTION ( 'NONE',  ( -1.000000000000000000, 0.000000000000000000, 0.000000000000000000 ) ) ;
#200 = EDGE_LOOP ( 'NONE', ( #218 ) ) ;
#201 = DIRECTION ( 'NONE',  ( 1.000000000000000000, 0.000000000000000000, 0.000000000000000000 ) ) ;
#202 = APPLICATION_PROTOCOL_DEFINITION ( 'draft international standard', 'automotive_design', 1998, #62 ) ;
#203 = UNCERTAINTY_MEASURE_WITH_UNIT (LENGTH_MEASURE( 1.000000000000000082E-05 ), #150, 'distance_accuracy_value', 'NONE');
#204 = DIRECTION ( 'NONE',  ( -1.000000000000000000, 1.836970198721027900E-17, 0.000000000000000000 ) ) ;
#205 =( NAMED_UNIT ( * ) PLANE_ANGLE_UNIT ( ) SI_UNIT ( $, .RADIAN. ) );
#206 = FACE_OUTER_BOUND ( 'NONE', #24, .T. ) ;
#207 = AXIS2_PLACEMENT_3D ( 'NONE', #136, #75, #23 ) ;
#208 = CARTESIAN_POINT ( 'NONE',  ( 1.349783804395669384E-33, 7.347880794884114066E-17, 0.000000000000000000 ) ) ;
#209 = CARTESIAN_POINT ( 'NONE',  ( 5.249999999999987566, 9.999999999999998224, 0.000000000000000000 ) ) ;
#210 = COLOUR_RGB ( '',0.7529411764705882248, 0.7529411764705882248, 0.7529411764705882248 ) ;
#211 = VERTEX_POINT ( 'NONE', #98 ) ;
#212 = DIRECTION ( 'NONE',  ( -1.000000000000000000, 0.000000000000000000, 0.000000000000000000 ) ) ;
#213 = FILL_AREA_STYLE ('',( #173 ) ) ;
#214 = EDGE_CURVE ( 'NONE', #60, #60, #78, .T. ) ;
#215 = COLOUR_RGB ( '',0.7529411764705882248, 0.7529411764705882248, 0.7529411764705882248 ) ;
#216 = ORIENTED_EDGE ( 'NONE', *, *, #120, .T. ) ;
#217 = SURFACE_SIDE_STYLE ('',( #221 ) ) ;
#218 = ORIENTED_EDGE ( 'NONE', *, *, #30, .F. ) ;
#219 = AXIS2_PLACEMENT_3D ( 'NONE', #208, #240, #204 ) ;
#220 = ORIENTED_EDGE ( 'NONE', *, *, #120, .F. ) ;
#221 = SURFACE_STYLE_FILL_AREA ( #138 ) ;
#222 = FILL_AREA_STYLE_COLOUR ( '', #53 ) ;
#223 = EDGE_CURVE ( 'NONE', #117, #117, #195, .T. ) ;
#224 = FACE_OUTER_BOUND ( 'NONE', #68, .T. ) ;
#225 = PRESENTATION_LAYER_ASSIGNMENT (  '', '', ( #139 ) ) ;
#226 = DIRECTION ( 'NONE',  ( 1.836970198721027900E-17, 1.000000000000000000, -0.000000000000000000 ) ) ;
#227 = MECHANICAL_DESIGN_GEOMETRIC_PRESENTATION_REPRESENTATION (  '', ( #122 ), #64 ) ;
#228 = VERTEX_POINT ( 'NONE', #22 ) ;
#229 =( NAMED_UNIT ( * ) SI_UNIT ( $, .STERADIAN. ) SOLID_ANGLE_UNIT ( ) );
#230 = PRODUCT_DEFINITION_SHAPE ( 'NONE', 'NONE',  #192 ) ;
#231 = MANIFOLD_SOLID_BREP ( 'M12x1.5 Gewindebohrung1', #6 ) ;
#232 = EDGE_CURVE ( 'NONE', #116, #116, #9, .T. ) ;
#233 = APPLICATION_CONTEXT ( 'automotive_design' ) ;
#234 =( NAMED_UNIT ( * ) PLANE_ANGLE_UNIT ( ) SI_UNIT ( $, .RADIAN. ) );
#235 = FACE_BOUND ( 'NONE', #104, .T. ) ;
#236 = AXIS2_PLACEMENT_3D ( 'NONE', #193, #110, #112 ) ;
#237 = ORIENTED_EDGE ( 'NONE', *, *, #223, .T. ) ;
#238 = UNCERTAINTY_MEASURE_WITH_UNIT (LENGTH_MEASURE( 1.000000000000000082E-05 ), #2, 'distance_accuracy_value', 'NONE');
#239 = EDGE_CURVE ( 'NONE', #196, #196, #57, .T. ) ;
#240 = DIRECTION ( 'NONE',  ( 1.836970198721027900E-17, 1.000000000000000000, -0.000000000000000000 ) ) ;
#241 = FILL_AREA_STYLE ('',( #222 ) ) ;
#242 = PRODUCT_DEFINITION_FORMATION_WITH_SPECIFIED_SOURCE ( 'ANY', '', #183, .NOT_KNOWN. ) ;
#243 = DIRECTION ( 'NONE',  ( -1.000000000000000000, 0.000000000000000000, 0.000000000000000000 ) ) ;
#244 = STYLED_ITEM ( 'NONE', ( #141 ), #180 ) ;
ENDSEC;
END-ISO-10303-21;
