ISO-10303-21;
HEADER;
FILE_DESCRIPTION (( 'STEP AP214' ),
    '1' );
FILE_NAME ('2089548.stp',
    '2022-11-29T08:40:27',
    ( '' ),
    ( '' ),
    'SwSTEP 2.0',
    'SolidWorks 2020',
    '' );
FILE_SCHEMA (( 'AUTOMOTIVE_DESIGN' ));
ENDSEC;

DATA;
#1 = EDGE_LOOP ( 'NONE', ( #200 ) ) ;
#2 = PRODUCT_DEFINITION_SHAPE ( 'NONE', 'NONE',  #191 ) ;
#3 = EDGE_LOOP ( 'NONE', ( #166 ) ) ;
#4 = ORIENTED_EDGE ( 'NONE', *, *, #8, .F. ) ;
#5 = CARTESIAN_POINT ( 'NONE',  ( -1.836970198721029688E-16, 11.49999999999999822, 0.000000000000000000 ) ) ;
#6 = CARTESIAN_POINT ( 'NONE',  ( -12.50000000000000355, 5.299999999999993605, 0.000000000000000000 ) ) ;
#7 = UNCERTAINTY_MEASURE_WITH_UNIT (LENGTH_MEASURE( 1.000000000000000082E-05 ), #59, 'distance_accuracy_value', 'NONE');
#8 = EDGE_CURVE ( 'NONE', #134, #134, #72, .T. ) ;
#9 = CYLINDRICAL_SURFACE ( 'NONE', #43, 11.50000000000000000 ) ;
#10 = AXIS2_PLACEMENT_3D ( 'NONE', #150, #11, #98 ) ;
#11 = DIRECTION ( 'NONE',  ( -1.597365390192199996E-17, 1.000000000000000000, 0.000000000000000000 ) ) ;
#12 = FACE_BOUND ( 'NONE', #3, .T. ) ;
#13 = SURFACE_SIDE_STYLE ('',( #126 ) ) ;
#14 = PRODUCT_RELATED_PRODUCT_CATEGORY ( 'part', '', ( #103 ) ) ;
#15 = DIRECTION ( 'NONE',  ( 1.000000000000000000, 0.000000000000000000, 0.000000000000000000 ) ) ;
#16 = DIRECTION ( 'NONE',  ( 1.000000000000000000, 0.000000000000000000, 0.000000000000000000 ) ) ;
#17 = CARTESIAN_POINT ( 'NONE',  ( -1.836970198721029934E-16, 11.50000000000000000, 0.000000000000000000 ) ) ;
#18 = EDGE_LOOP ( 'NONE', ( #83 ) ) ;
#19 = EDGE_LOOP ( 'NONE', ( #35 ) ) ;
#20 =( NAMED_UNIT ( * ) PLANE_ANGLE_UNIT ( ) SI_UNIT ( $, .RADIAN. ) );
#21 = ORIENTED_EDGE ( 'NONE', *, *, #107, .T. ) ;
#22 = FACE_OUTER_BOUND ( 'NONE', #34, .T. ) ;
#23 = DIRECTION ( 'NONE',  ( -1.597365390192199996E-17, 1.000000000000000000, -0.000000000000000000 ) ) ;
#24 = ADVANCED_FACE ( 'NONE', ( #22, #145 ), #86, .T. ) ;
#25 = CARTESIAN_POINT ( 'NONE',  ( -11.50000000000000000, 8.000000000000000000, 0.000000000000000000 ) ) ;
#26 = DIRECTION ( 'NONE',  ( 1.000000000000000000, 0.000000000000000000, 0.000000000000000000 ) ) ;
#27 = PRODUCT_DEFINITION_FORMATION_WITH_SPECIFIED_SOURCE ( 'ANY', '', #103, .NOT_KNOWN. ) ;
#28 = DIRECTION ( 'NONE',  ( -1.597365390192199996E-17, 1.000000000000000000, -0.000000000000000000 ) ) ;
#29 = EDGE_CURVE ( 'NONE', #188, #188, #123, .T. ) ;
#30 = DIRECTION ( 'NONE',  ( -1.597365390192199996E-17, 1.000000000000000000, 0.000000000000000000 ) ) ;
#31 = FACE_BOUND ( 'NONE', #55, .T. ) ;
#32 = FACE_BOUND ( 'NONE', #1, .T. ) ;
#33 = FACE_OUTER_BOUND ( 'NONE', #37, .T. ) ;
#34 = EDGE_LOOP ( 'NONE', ( #132 ) ) ;
#35 = ORIENTED_EDGE ( 'NONE', *, *, #107, .F. ) ;
#36 = EDGE_LOOP ( 'NONE', ( #56 ) ) ;
#37 = EDGE_LOOP ( 'NONE', ( #201 ) ) ;
#38 = CARTESIAN_POINT ( 'NONE',  ( -1.277892312153759997E-16, 8.000000000000000000, 0.000000000000000000 ) ) ;
#39 = EDGE_LOOP ( 'NONE', ( #102 ) ) ;
#40 = AXIS2_PLACEMENT_3D ( 'NONE', #17, #89, #146 ) ;
#41 = CARTESIAN_POINT ( 'NONE',  ( -15.00000000000000000, 8.000000000000000000, 0.000000000000000000 ) ) ;
#42 = CARTESIAN_POINT ( 'NONE',  ( 0.000000000000000000, 0.000000000000000000, -0.000000000000000000 ) ) ;
#43 = AXIS2_PLACEMENT_3D ( 'NONE', #5, #140, #203 ) ;
#44 = ADVANCED_FACE ( 'NONE', ( #96, #137 ), #93, .F. ) ;
#45 = ADVANCED_FACE ( 'NONE', ( #31, #206 ), #173, .F. ) ;
#46 = CIRCLE ( 'NONE', #144, 12.50000000000000355 ) ;
#47 = CARTESIAN_POINT ( 'NONE',  ( 11.50000000000000000, 8.000000000000000000, 0.000000000000000000 ) ) ;
#48 =( LENGTH_UNIT ( ) NAMED_UNIT ( * ) SI_UNIT ( .MILLI., .METRE. ) );
#49 = MECHANICAL_DESIGN_GEOMETRIC_PRESENTATION_REPRESENTATION (  '', ( #163 ), #167 ) ;
#50 = DIRECTION ( 'NONE',  ( -0.000000000000000000, -1.000000000000000000, -0.000000000000000000 ) ) ;
#51 = EDGE_CURVE ( 'NONE', #91, #91, #154, .T. ) ;
#52 = SHAPE_DEFINITION_REPRESENTATION ( #2, #104 ) ;
#53 = EDGE_LOOP ( 'NONE', ( #4 ) ) ;
#54 = DIRECTION ( 'NONE',  ( -1.000000000000000000, 0.000000000000000000, 0.000000000000000000 ) ) ;
#55 = EDGE_LOOP ( 'NONE', ( #21 ) ) ;
#56 = ORIENTED_EDGE ( 'NONE', *, *, #8, .T. ) ;
#57 = VERTEX_POINT ( 'NONE', #71 ) ;
#58 =( GEOMETRIC_REPRESENTATION_CONTEXT ( 3 ) GLOBAL_UNCERTAINTY_ASSIGNED_CONTEXT ( ( #7 ) ) GLOBAL_UNIT_ASSIGNED_CONTEXT ( ( #59, #120, #129 ) ) REPRESENTATION_CONTEXT ( 'NONE', 'WORKASPACE' ) );
#59 =( LENGTH_UNIT ( ) NAMED_UNIT ( * ) SI_UNIT ( .MILLI., .METRE. ) );
#60 = PRESENTATION_LAYER_ASSIGNMENT (  '', '', ( #163 ) ) ;
#61 = ADVANCED_FACE ( 'NONE', ( #32, #177 ), #183, .T. ) ;
#62 = CARTESIAN_POINT ( 'NONE',  ( -1.006340195821085887E-16, 6.299999999999999822, 0.000000000000000000 ) ) ;
#63 = AXIS2_PLACEMENT_3D ( 'NONE', #109, #50, #112 ) ;
#64 = MANIFOLD_SOLID_BREP ( 'M16x1.5 Gewindebohrung1', #164 ) ;
#65 =( NAMED_UNIT ( * ) SI_UNIT ( $, .STERADIAN. ) SOLID_ANGLE_UNIT ( ) );
#66 = CARTESIAN_POINT ( 'NONE',  ( 0.000000000000000000, 0.000000000000000000, 0.000000000000000000 ) ) ;
#67 = DIRECTION ( 'NONE',  ( 0.000000000000000000, 0.000000000000000000, 1.000000000000000000 ) ) ;
#68 = CARTESIAN_POINT ( 'NONE',  ( -1.836970198721029688E-16, 11.49999999999999822, 0.000000000000000000 ) ) ;
#69 = AXIS2_PLACEMENT_3D ( 'NONE', #121, #198, #133 ) ;
#70 = CYLINDRICAL_SURFACE ( 'NONE', #69, 15.00000000000000000 ) ;
#71 = CARTESIAN_POINT ( 'NONE',  ( 7.249999999999988454, 11.50000000000000000, 0.000000000000000000 ) ) ;
#72 = CIRCLE ( 'NONE', #84, 15.00000000000000000 ) ;
#73 = CARTESIAN_POINT ( 'NONE',  ( 15.00000000000000000, 11.50000000000000000, 0.000000000000000000 ) ) ;
#74 = PLANE ( 'NONE',  #157 ) ;
#75 = SURFACE_STYLE_USAGE ( .BOTH. , #13 ) ;
#76 = DIRECTION ( 'NONE',  ( -1.000000000000000000, 0.000000000000000000, 0.000000000000000000 ) ) ;
#77 = EDGE_CURVE ( 'NONE', #106, #106, #139, .T. ) ;
#78 = FILL_AREA_STYLE_COLOUR ( '', #151 ) ;
#79 = FACE_OUTER_BOUND ( 'NONE', #19, .T. ) ;
#80 = AXIS2_PLACEMENT_3D ( 'NONE', #172, #153, #26 ) ;
#81 = APPLICATION_PROTOCOL_DEFINITION ( 'draft international standard', 'automotive_design', 1998, #94 ) ;
#82 = AXIS2_PLACEMENT_3D ( 'NONE', #136, #207, #15 ) ;
#83 = ORIENTED_EDGE ( 'NONE', *, *, #149, .T. ) ;
#84 = AXIS2_PLACEMENT_3D ( 'NONE', #38, #168, #85 ) ;
#85 = DIRECTION ( 'NONE',  ( -1.000000000000000000, 0.000000000000000000, 0.000000000000000000 ) ) ;
#86 = CYLINDRICAL_SURFACE ( 'NONE', #187, 12.50000000000000355 ) ;
#87 = FACE_OUTER_BOUND ( 'NONE', #165, .T. ) ;
#88 = EDGE_CURVE ( 'NONE', #148, #148, #212, .T. ) ;
#89 = DIRECTION ( 'NONE',  ( -1.597365390192199996E-17, 1.000000000000000000, -0.000000000000000000 ) ) ;
#90 = PRODUCT_DEFINITION_CONTEXT ( 'detailed design', #125, 'design' ) ;
#91 = VERTEX_POINT ( 'NONE', #147 ) ;
#92 = FACE_OUTER_BOUND ( 'NONE', #119, .T. ) ;
#93 = PLANE ( 'NONE',  #10 ) ;
#94 = APPLICATION_CONTEXT ( 'automotive_design' ) ;
#95 = AXIS2_PLACEMENT_3D ( 'NONE', #62, #138, #76 ) ;
#96 = FACE_BOUND ( 'NONE', #39, .T. ) ;
#97 = DIRECTION ( 'NONE',  ( -1.000000000000000000, -1.597365390192200304E-17, 0.000000000000000000 ) ) ;
#98 = DIRECTION ( 'NONE',  ( -1.000000000000000000, -1.597365390192199996E-17, 0.000000000000000000 ) ) ;
#99 = CYLINDRICAL_SURFACE ( 'NONE', #204, 7.249999999999988454 ) ;
#100 = CARTESIAN_POINT ( 'NONE',  ( 0.000000000000000000, -1.469576158976823356E-15, -7.249999999999991118 ) ) ;
#101 = AXIS2_PLACEMENT_3D ( 'NONE', #196, #127, #193 ) ;
#102 = ORIENTED_EDGE ( 'NONE', *, *, #88, .F. ) ;
#103 = PRODUCT ( '2089548', '2089548', '', ( #141 ) ) ;
#104 = ADVANCED_BREP_SHAPE_REPRESENTATION ( '2089548', ( #64, #117 ), #58 ) ;
#105 = EDGE_LOOP ( 'NONE', ( #113 ) ) ;
#106 = VERTEX_POINT ( 'NONE', #25 ) ;
#107 = EDGE_CURVE ( 'NONE', #57, #57, #174, .T. ) ;
#108 = CARTESIAN_POINT ( 'NONE',  ( -12.50000000000000178, -1.996706737740250550E-16, 0.000000000000000000 ) ) ;
#109 = CARTESIAN_POINT ( 'NONE',  ( 0.000000000000000000, -1.469576158976823356E-15, -0.000000000000000000 ) ) ;
#110 = STYLED_ITEM ( 'NONE', ( #211 ), #104 ) ;
#111 = FACE_OUTER_BOUND ( 'NONE', #53, .T. ) ;
#112 = DIRECTION ( 'NONE',  ( 0.000000000000000000, 0.000000000000000000, -1.000000000000000000 ) ) ;
#113 = ORIENTED_EDGE ( 'NONE', *, *, #142, .T. ) ;
#114 = FILL_AREA_STYLE ('',( #78 ) ) ;
#115 = FACE_OUTER_BOUND ( 'NONE', #36, .T. ) ;
#116 = EDGE_LOOP ( 'NONE', ( #181 ) ) ;
#117 = AXIS2_PLACEMENT_3D ( 'NONE', #66, #67, #16 ) ;
#118 = EDGE_LOOP ( 'NONE', ( #152 ) ) ;
#119 = EDGE_LOOP ( 'NONE', ( #131 ) ) ;
#120 =( NAMED_UNIT ( * ) PLANE_ANGLE_UNIT ( ) SI_UNIT ( $, .RADIAN. ) );
#121 = CARTESIAN_POINT ( 'NONE',  ( -1.836970198721029688E-16, 11.49999999999999822, 0.000000000000000000 ) ) ;
#122 = DIRECTION ( 'NONE',  ( 0.000000000000000000, 0.000000000000000000, -1.000000000000000000 ) ) ;
#123 = CIRCLE ( 'NONE', #194, 12.50000000000000178 ) ;
#124 = ADVANCED_FACE ( 'NONE', ( #111, #12 ), #74, .F. ) ;
#125 = APPLICATION_CONTEXT ( 'automotive_design' ) ;
#126 = SURFACE_STYLE_FILL_AREA ( #205 ) ;
#127 = DIRECTION ( 'NONE',  ( -1.597365390192199996E-17, 1.000000000000000000, -0.000000000000000000 ) ) ;
#128 =( LENGTH_UNIT ( ) NAMED_UNIT ( * ) SI_UNIT ( .MILLI., .METRE. ) );
#129 =( NAMED_UNIT ( * ) SI_UNIT ( $, .STERADIAN. ) SOLID_ANGLE_UNIT ( ) );
#130 = AXIS2_PLACEMENT_3D ( 'NONE', #73, #156, #192 ) ;
#131 = ORIENTED_EDGE ( 'NONE', *, *, #51, .T. ) ;
#132 = ORIENTED_EDGE ( 'NONE', *, *, #142, .F. ) ;
#133 = DIRECTION ( 'NONE',  ( -1.000000000000000000, 0.000000000000000000, 0.000000000000000000 ) ) ;
#134 = VERTEX_POINT ( 'NONE', #41 ) ;
#135 = CARTESIAN_POINT ( 'NONE',  ( -15.00000000000000000, 11.50000000000000000, 0.000000000000000000 ) ) ;
#136 = CARTESIAN_POINT ( 'NONE',  ( -8.466036568018649010E-17, 5.299999999999993605, 0.000000000000000000 ) ) ;
#137 = FACE_OUTER_BOUND ( 'NONE', #185, .T. ) ;
#138 = DIRECTION ( 'NONE',  ( -1.597365390192199996E-17, 1.000000000000000000, -0.000000000000000000 ) ) ;
#139 = CIRCLE ( 'NONE', #101, 11.50000000000000000 ) ;
#140 = DIRECTION ( 'NONE',  ( -1.597365390192199996E-17, 1.000000000000000000, -0.000000000000000000 ) ) ;
#141 = PRODUCT_CONTEXT ( 'NONE', #94, 'mechanical' ) ;
#142 = EDGE_CURVE ( 'NONE', #214, #214, #46, .T. ) ;
#143 = DIRECTION ( 'NONE',  ( -1.597365390192199996E-17, 1.000000000000000000, -0.000000000000000000 ) ) ;
#144 = AXIS2_PLACEMENT_3D ( 'NONE', #170, #23, #186 ) ;
#145 = FACE_OUTER_BOUND ( 'NONE', #116, .T. ) ;
#146 = DIRECTION ( 'NONE',  ( -1.000000000000000000, 0.000000000000000000, 0.000000000000000000 ) ) ;
#147 = CARTESIAN_POINT ( 'NONE',  ( -11.50000000000000000, 6.299999999999999822, 0.000000000000000000 ) ) ;
#148 = VERTEX_POINT ( 'NONE', #100 ) ;
#149 = EDGE_CURVE ( 'NONE', #171, #171, #182, .T. ) ;
#150 = CARTESIAN_POINT ( 'NONE',  ( 1.594735118614924956E-33, -9.983533688701252750E-17, 0.000000000000000000 ) ) ;
#151 = COLOUR_RGB ( '',0.7529411764705882248, 0.7529411764705882248, 0.7529411764705882248 ) ;
#152 = ORIENTED_EDGE ( 'NONE', *, *, #149, .F. ) ;
#153 = DIRECTION ( 'NONE',  ( 1.597365390192199996E-17, -1.000000000000000000, 0.000000000000000000 ) ) ;
#154 = CIRCLE ( 'NONE', #95, 11.50000000000000000 ) ;
#155 = FILL_AREA_STYLE_COLOUR ( '', #175 ) ;
#156 = DIRECTION ( 'NONE',  ( 1.597365390192199996E-17, -1.000000000000000000, 0.000000000000000000 ) ) ;
#157 = AXIS2_PLACEMENT_3D ( 'NONE', #47, #30, #176 ) ;
#158 = PRESENTATION_STYLE_ASSIGNMENT (( #75 ) ) ;
#159 = ADVANCED_FACE ( 'NONE', ( #87, #92 ), #9, .T. ) ;
#160 = SURFACE_SIDE_STYLE ('',( #180 ) ) ;
#161 = DIRECTION ( 'NONE',  ( -0.000000000000000000, -1.000000000000000000, -0.000000000000000000 ) ) ;
#162 = MECHANICAL_DESIGN_GEOMETRIC_PRESENTATION_REPRESENTATION (  '', ( #110 ), #189 ) ;
#163 = STYLED_ITEM ( 'NONE', ( #158 ), #64 ) ;
#164 = CLOSED_SHELL ( 'NONE', ( #44, #24, #61, #159, #124, #195, #45, #209 ) ) ;
#165 = EDGE_LOOP ( 'NONE', ( #179 ) ) ;
#166 = ORIENTED_EDGE ( 'NONE', *, *, #77, .T. ) ;
#167 =( GEOMETRIC_REPRESENTATION_CONTEXT ( 3 ) GLOBAL_UNCERTAINTY_ASSIGNED_CONTEXT ( ( #190 ) ) GLOBAL_UNIT_ASSIGNED_CONTEXT ( ( #48, #210, #65 ) ) REPRESENTATION_CONTEXT ( 'NONE', 'WORKASPACE' ) );
#168 = DIRECTION ( 'NONE',  ( -1.597365390192199996E-17, 1.000000000000000000, -0.000000000000000000 ) ) ;
#169 = UNCERTAINTY_MEASURE_WITH_UNIT (LENGTH_MEASURE( 1.000000000000000082E-05 ), #128, 'distance_accuracy_value', 'NONE');
#170 = CARTESIAN_POINT ( 'NONE',  ( -8.466036568018649010E-17, 5.299999999999993605, 0.000000000000000000 ) ) ;
#171 = VERTEX_POINT ( 'NONE', #135 ) ;
#172 = CARTESIAN_POINT ( 'NONE',  ( 0.000000000000000000, 11.50000000000000000, 0.000000000000000000 ) ) ;
#173 = PLANE ( 'NONE',  #130 ) ;
#174 = CIRCLE ( 'NONE', #80, 7.249999999999988454 ) ;
#175 = COLOUR_RGB ( '',0.7529411764705882248, 0.7529411764705882248, 0.7529411764705882248 ) ;
#176 = DIRECTION ( 'NONE',  ( -1.000000000000000000, -1.597365390192199996E-17, 0.000000000000000000 ) ) ;
#177 = FACE_OUTER_BOUND ( 'NONE', #105, .T. ) ;
#178 = CARTESIAN_POINT ( 'NONE',  ( 0.000000000000000000, 0.000000000000000000, 0.000000000000000000 ) ) ;
#179 = ORIENTED_EDGE ( 'NONE', *, *, #77, .F. ) ;
#180 = SURFACE_STYLE_FILL_AREA ( #114 ) ;
#181 = ORIENTED_EDGE ( 'NONE', *, *, #29, .T. ) ;
#182 = CIRCLE ( 'NONE', #40, 15.00000000000000000 ) ;
#183 = CONICAL_SURFACE ( 'NONE', #82, 12.50000000000000355, 0.7853981633974473908 ) ;
#184 = ORIENTED_EDGE ( 'NONE', *, *, #29, .F. ) ;
#185 = EDGE_LOOP ( 'NONE', ( #184 ) ) ;
#186 = DIRECTION ( 'NONE',  ( -1.000000000000000000, 0.000000000000000000, 0.000000000000000000 ) ) ;
#187 = AXIS2_PLACEMENT_3D ( 'NONE', #68, #143, #54 ) ;
#188 = VERTEX_POINT ( 'NONE', #108 ) ;
#189 =( GEOMETRIC_REPRESENTATION_CONTEXT ( 3 ) GLOBAL_UNCERTAINTY_ASSIGNED_CONTEXT ( ( #169 ) ) GLOBAL_UNIT_ASSIGNED_CONTEXT ( ( #128, #20, #213 ) ) REPRESENTATION_CONTEXT ( 'NONE', 'WORKASPACE' ) );
#190 = UNCERTAINTY_MEASURE_WITH_UNIT (LENGTH_MEASURE( 1.000000000000000082E-05 ), #48, 'distance_accuracy_value', 'NONE');
#191 = PRODUCT_DEFINITION ( 'UNKNOWN', '', #27, #90 ) ;
#192 = DIRECTION ( 'NONE',  ( 1.000000000000000000, 1.597365390192199996E-17, 0.000000000000000000 ) ) ;
#193 = DIRECTION ( 'NONE',  ( -1.000000000000000000, 0.000000000000000000, 0.000000000000000000 ) ) ;
#194 = AXIS2_PLACEMENT_3D ( 'NONE', #178, #28, #97 ) ;
#195 = ADVANCED_FACE ( 'NONE', ( #202, #115 ), #70, .T. ) ;
#196 = CARTESIAN_POINT ( 'NONE',  ( -1.277892312153759997E-16, 8.000000000000000000, 0.000000000000000000 ) ) ;
#197 = APPLICATION_PROTOCOL_DEFINITION ( 'draft international standard', 'automotive_design', 1998, #125 ) ;
#198 = DIRECTION ( 'NONE',  ( -1.597365390192199996E-17, 1.000000000000000000, -0.000000000000000000 ) ) ;
#199 = SURFACE_STYLE_USAGE ( .BOTH. , #160 ) ;
#200 = ORIENTED_EDGE ( 'NONE', *, *, #51, .F. ) ;
#201 = ORIENTED_EDGE ( 'NONE', *, *, #88, .T. ) ;
#202 = FACE_OUTER_BOUND ( 'NONE', #118, .T. ) ;
#203 = DIRECTION ( 'NONE',  ( -1.000000000000000000, 0.000000000000000000, 0.000000000000000000 ) ) ;
#204 = AXIS2_PLACEMENT_3D ( 'NONE', #42, #161, #122 ) ;
#205 = FILL_AREA_STYLE ('',( #155 ) ) ;
#206 = FACE_OUTER_BOUND ( 'NONE', #18, .T. ) ;
#207 = DIRECTION ( 'NONE',  ( 1.597365390192199996E-17, -1.000000000000000000, 0.000000000000000000 ) ) ;
#208 = PRESENTATION_LAYER_ASSIGNMENT (  '', '', ( #110 ) ) ;
#209 = ADVANCED_FACE ( 'NONE', ( #33, #79 ), #99, .F. ) ;
#210 =( NAMED_UNIT ( * ) PLANE_ANGLE_UNIT ( ) SI_UNIT ( $, .RADIAN. ) );
#211 = PRESENTATION_STYLE_ASSIGNMENT (( #199 ) ) ;
#212 = CIRCLE ( 'NONE', #63, 7.249999999999991118 ) ;
#213 =( NAMED_UNIT ( * ) SI_UNIT ( $, .STERADIAN. ) SOLID_ANGLE_UNIT ( ) );
#214 = VERTEX_POINT ( 'NONE', #6 ) ;
ENDSEC;
END-ISO-10303-21;
