ISO-10303-21;
HEADER;
FILE_DESCRIPTION (( 'STEP AP214' ),
    '1' );
FILE_NAME ('2089564.stp',
    '2022-11-29T08:41:36',
    ( '' ),
    ( '' ),
    'SwSTEP 2.0',
    'SolidWorks 2020',
    '' );
FILE_SCHEMA (( 'AUTOMOTIVE_DESIGN' ));
ENDSEC;

DATA;
#1 = CARTESIAN_POINT ( 'NONE',  ( -1.420590287010928054E-16, 5.799999999999992717, 0.000000000000000000 ) ) ;
#2 = PRODUCT ( '2089564', '2089564', '', ( #61 ) ) ;
#3 = DIRECTION ( 'NONE',  ( -2.449293598294707770E-17, 1.000000000000000000, -0.000000000000000000 ) ) ;
#4 = CARTESIAN_POINT ( 'NONE',  ( -14.99999999999999822, 6.800000000000000711, 0.000000000000000000 ) ) ;
#5 = FILL_AREA_STYLE_COLOUR ( '', #76 ) ;
#6 = EDGE_LOOP ( 'NONE', ( #162 ) ) ;
#7 = APPLICATION_PROTOCOL_DEFINITION ( 'draft international standard', 'automotive_design', 1998, #170 ) ;
#8 = EDGE_LOOP ( 'NONE', ( #176 ) ) ;
#9 = PRESENTATION_LAYER_ASSIGNMENT (  '', '', ( #130 ) ) ;
#10 = ORIENTED_EDGE ( 'NONE', *, *, #44, .T. ) ;
#11 = CYLINDRICAL_SURFACE ( 'NONE', #97, 19.50000000000000000 ) ;
#12 = CIRCLE ( 'NONE', #73, 14.99999999999999822 ) ;
#13 = EDGE_LOOP ( 'NONE', ( #190 ) ) ;
#14 = CARTESIAN_POINT ( 'NONE',  ( 4.814824860968089633E-32, 0.000000000000000000, 0.000000000000000000 ) ) ;
#15 = FACE_BOUND ( 'NONE', #77, .T. ) ;
#16 = CIRCLE ( 'NONE', #87, 9.249999999999991118 ) ;
#17 = DIRECTION ( 'NONE',  ( 1.000000000000000000, 2.449293598294707770E-17, 0.000000000000000000 ) ) ;
#18 = AXIS2_PLACEMENT_3D ( 'NONE', #46, #140, #173 ) ;
#19 = VERTEX_POINT ( 'NONE', #151 ) ;
#20 = PRESENTATION_STYLE_ASSIGNMENT (( #120 ) ) ;
#21 = AXIS2_PLACEMENT_3D ( 'NONE', #72, #119, #42 ) ;
#22 = CARTESIAN_POINT ( 'NONE',  ( -19.50000000000000000, 8.500000000000000000, 0.000000000000000000 ) ) ;
#23 =( NAMED_UNIT ( * ) PLANE_ANGLE_UNIT ( ) SI_UNIT ( $, .RADIAN. ) );
#24 = EDGE_CURVE ( 'NONE', #71, #71, #177, .T. ) ;
#25 =( NAMED_UNIT ( * ) SI_UNIT ( $, .STERADIAN. ) SOLID_ANGLE_UNIT ( ) );
#26 = AXIS2_PLACEMENT_3D ( 'NONE', #128, #193, #195 ) ;
#27 = ADVANCED_FACE ( 'NONE', ( #95, #66 ), #183, .F. ) ;
#28 = ORIENTED_EDGE ( 'NONE', *, *, #209, .T. ) ;
#29 = EDGE_LOOP ( 'NONE', ( #179 ) ) ;
#30 = DIRECTION ( 'NONE',  ( -2.449293598294707770E-17, 1.000000000000000000, -0.000000000000000000 ) ) ;
#31 = PLANE ( 'NONE',  #115 ) ;
#32 = CLOSED_SHELL ( 'NONE', ( #164, #143, #79, #92, #118, #103, #43, #27 ) ) ;
#33 = DIRECTION ( 'NONE',  ( -2.449293598294707770E-17, 1.000000000000000000, -0.000000000000000000 ) ) ;
#34 = DIRECTION ( 'NONE',  ( -1.000000000000000000, 0.000000000000000000, 0.000000000000000000 ) ) ;
#35 = EDGE_LOOP ( 'NONE', ( #163 ) ) ;
#36 = AXIS2_PLACEMENT_3D ( 'NONE', #137, #70, #41 ) ;
#37 = CARTESIAN_POINT ( 'NONE',  ( -2.081899558550501266E-16, 8.500000000000000000, 0.000000000000000000 ) ) ;
#38 = FILL_AREA_STYLE ('',( #96 ) ) ;
#39 = UNCERTAINTY_MEASURE_WITH_UNIT (LENGTH_MEASURE( 1.000000000000000082E-05 ), #117, 'distance_accuracy_value', 'NONE');
#40 = EDGE_CURVE ( 'NONE', #114, #114, #16, .T. ) ;
#41 = DIRECTION ( 'NONE',  ( -1.000000000000000000, 0.000000000000000000, 0.000000000000000000 ) ) ;
#42 = DIRECTION ( 'NONE',  ( -1.000000000000000000, 0.000000000000000000, 0.000000000000000000 ) ) ;
#43 = ADVANCED_FACE ( 'NONE', ( #80, #90 ), #31, .F. ) ;
#44 = EDGE_CURVE ( 'NONE', #83, #83, #126, .T. ) ;
#45 = EDGE_LOOP ( 'NONE', ( #91 ) ) ;
#46 = CARTESIAN_POINT ( 'NONE',  ( 0.000000000000000000, 0.000000000000000000, 0.000000000000000000 ) ) ;
#47 = ORIENTED_EDGE ( 'NONE', *, *, #60, .F. ) ;
#48 = AXIS2_PLACEMENT_3D ( 'NONE', #109, #208, #127 ) ;
#49 = PRODUCT_RELATED_PRODUCT_CATEGORY ( 'part', '', ( #2 ) ) ;
#50 = AXIS2_PLACEMENT_3D ( 'NONE', #52, #67, #210 ) ;
#51 = DIRECTION ( 'NONE',  ( 1.000000000000000000, 0.000000000000000000, 0.000000000000000000 ) ) ;
#52 = CARTESIAN_POINT ( 'NONE',  ( 0.000000000000000000, 2.449293598294713317E-16, 0.000000000000000000 ) ) ;
#53 = CIRCLE ( 'NONE', #21, 19.50000000000000000 ) ;
#54 = CARTESIAN_POINT ( 'NONE',  ( -2.081899558550500773E-16, 8.500000000000000000, 0.000000000000000000 ) ) ;
#55 = EDGE_LOOP ( 'NONE', ( #124 ) ) ;
#56 = DIRECTION ( 'NONE',  ( -1.000000000000000000, -2.449293598294707770E-17, 0.000000000000000000 ) ) ;
#57 = CONICAL_SURFACE ( 'NONE', #26, 16.00000000000000000, 0.7853981633974457255 ) ;
#58 = DIRECTION ( 'NONE',  ( -1.000000000000000000, 0.000000000000000000, 0.000000000000000000 ) ) ;
#59 =( GEOMETRIC_REPRESENTATION_CONTEXT ( 3 ) GLOBAL_UNCERTAINTY_ASSIGNED_CONTEXT ( ( #39 ) ) GLOBAL_UNIT_ASSIGNED_CONTEXT ( ( #117, #23, #169 ) ) REPRESENTATION_CONTEXT ( 'NONE', 'WORKASPACE' ) );
#60 = EDGE_CURVE ( 'NONE', #86, #86, #12, .T. ) ;
#61 = PRODUCT_CONTEXT ( 'NONE', #170, 'mechanical' ) ;
#62 = PRESENTATION_LAYER_ASSIGNMENT (  '', '', ( #189 ) ) ;
#63 = SHAPE_DEFINITION_REPRESENTATION ( #133, #181 ) ;
#64 = ORIENTED_EDGE ( 'NONE', *, *, #44, .F. ) ;
#65 = CARTESIAN_POINT ( 'NONE',  ( -1.665519646840400865E-16, 6.800000000000000711, 0.000000000000000000 ) ) ;
#66 = FACE_OUTER_BOUND ( 'NONE', #6, .T. ) ;
#67 = DIRECTION ( 'NONE',  ( -0.000000000000000000, -1.000000000000000000, -0.000000000000000000 ) ) ;
#68 = EDGE_LOOP ( 'NONE', ( #10 ) ) ;
#69 = DIRECTION ( 'NONE',  ( -1.000000000000000000, 0.000000000000000000, 0.000000000000000000 ) ) ;
#70 = DIRECTION ( 'NONE',  ( -2.449293598294707770E-17, 1.000000000000000000, -0.000000000000000000 ) ) ;
#71 = VERTEX_POINT ( 'NONE', #101 ) ;
#72 = CARTESIAN_POINT ( 'NONE',  ( -3.061616997868385113E-16, 12.50000000000000178, 0.000000000000000000 ) ) ;
#73 = AXIS2_PLACEMENT_3D ( 'NONE', #65, #30, #129 ) ;
#74 = CARTESIAN_POINT ( 'NONE',  ( -19.50000000000000000, 12.50000000000000178, 0.000000000000000000 ) ) ;
#75 =( LENGTH_UNIT ( ) NAMED_UNIT ( * ) SI_UNIT ( .MILLI., .METRE. ) );
#76 = COLOUR_RGB ( '',0.7529411764705882248, 0.7529411764705882248, 0.7529411764705882248 ) ;
#77 = EDGE_LOOP ( 'NONE', ( #174 ) ) ;
#78 = DIRECTION ( 'NONE',  ( 2.449293598294707770E-17, -1.000000000000000000, 0.000000000000000000 ) ) ;
#79 = ADVANCED_FACE ( 'NONE', ( #146, #184 ), #57, .T. ) ;
#80 = FACE_BOUND ( 'NONE', #29, .T. ) ;
#81 = AXIS2_PLACEMENT_3D ( 'NONE', #14, #33, #147 ) ;
#82 = FACE_OUTER_BOUND ( 'NONE', #8, .T. ) ;
#83 = VERTEX_POINT ( 'NONE', #22 ) ;
#84 = FACE_BOUND ( 'NONE', #122, .T. ) ;
#85 = FACE_OUTER_BOUND ( 'NONE', #13, .T. ) ;
#86 = VERTEX_POINT ( 'NONE', #4 ) ;
#87 = AXIS2_PLACEMENT_3D ( 'NONE', #166, #144, #51 ) ;
#88 =( NAMED_UNIT ( * ) SI_UNIT ( $, .STERADIAN. ) SOLID_ANGLE_UNIT ( ) );
#89 = ORIENTED_EDGE ( 'NONE', *, *, #60, .T. ) ;
#90 = FACE_OUTER_BOUND ( 'NONE', #93, .T. ) ;
#91 = ORIENTED_EDGE ( 'NONE', *, *, #24, .T. ) ;
#92 = ADVANCED_FACE ( 'NONE', ( #82, #150 ), #213, .T. ) ;
#93 = EDGE_LOOP ( 'NONE', ( #28 ) ) ;
#94 = CARTESIAN_POINT ( 'NONE',  ( -3.061616997868384127E-16, 12.49999999999999822, 0.000000000000000000 ) ) ;
#95 = FACE_OUTER_BOUND ( 'NONE', #45, .T. ) ;
#96 = FILL_AREA_STYLE_COLOUR ( '', #155 ) ;
#97 = AXIS2_PLACEMENT_3D ( 'NONE', #185, #134, #194 ) ;
#98 = PRODUCT_DEFINITION_CONTEXT ( 'detailed design', #175, 'design' ) ;
#99 = SURFACE_SIDE_STYLE ('',( #202 ) ) ;
#100 =( GEOMETRIC_REPRESENTATION_CONTEXT ( 3 ) GLOBAL_UNCERTAINTY_ASSIGNED_CONTEXT ( ( #214 ) ) GLOBAL_UNIT_ASSIGNED_CONTEXT ( ( #141, #125, #25 ) ) REPRESENTATION_CONTEXT ( 'NONE', 'WORKASPACE' ) );
#101 = CARTESIAN_POINT ( 'NONE',  ( 0.000000000000000000, 2.449293598294713317E-16, -9.249999999999994671 ) ) ;
#102 =( NAMED_UNIT ( * ) PLANE_ANGLE_UNIT ( ) SI_UNIT ( $, .RADIAN. ) );
#103 = ADVANCED_FACE ( 'NONE', ( #112, #110 ), #11, .T. ) ;
#104 = FILL_AREA_STYLE ('',( #5 ) ) ;
#105 = AXIS2_PLACEMENT_3D ( 'NONE', #131, #148, #196 ) ;
#106 = ORIENTED_EDGE ( 'NONE', *, *, #209, .F. ) ;
#107 = EDGE_CURVE ( 'NONE', #19, #19, #145, .T. ) ;
#108 = AXIS2_PLACEMENT_3D ( 'NONE', #37, #171, #154 ) ;
#109 = CARTESIAN_POINT ( 'NONE',  ( 15.00000000000000000, 8.500000000000000000, 0.000000000000000000 ) ) ;
#110 = FACE_OUTER_BOUND ( 'NONE', #68, .T. ) ;
#111 = ORIENTED_EDGE ( 'NONE', *, *, #168, .T. ) ;
#112 = FACE_OUTER_BOUND ( 'NONE', #211, .T. ) ;
#113 = CARTESIAN_POINT ( 'NONE',  ( 19.50000000000000000, 12.50000000000000000, 0.000000000000000000 ) ) ;
#114 = VERTEX_POINT ( 'NONE', #187 ) ;
#115 = AXIS2_PLACEMENT_3D ( 'NONE', #113, #78, #17 ) ;
#116 = FACE_OUTER_BOUND ( 'NONE', #35, .T. ) ;
#117 =( LENGTH_UNIT ( ) NAMED_UNIT ( * ) SI_UNIT ( .MILLI., .METRE. ) );
#118 = ADVANCED_FACE ( 'NONE', ( #165, #15 ), #197, .F. ) ;
#119 = DIRECTION ( 'NONE',  ( -2.449293598294707770E-17, 1.000000000000000000, -0.000000000000000000 ) ) ;
#120 = SURFACE_STYLE_USAGE ( .BOTH. , #99 ) ;
#121 = SURFACE_SIDE_STYLE ('',( #158 ) ) ;
#122 = EDGE_LOOP ( 'NONE', ( #205 ) ) ;
#123 = CARTESIAN_POINT ( 'NONE',  ( -16.00000000000000000, 5.799999999999992717, 0.000000000000000000 ) ) ;
#124 = ORIENTED_EDGE ( 'NONE', *, *, #168, .F. ) ;
#125 =( NAMED_UNIT ( * ) PLANE_ANGLE_UNIT ( ) SI_UNIT ( $, .RADIAN. ) );
#126 = CIRCLE ( 'NONE', #149, 19.50000000000000000 ) ;
#127 = DIRECTION ( 'NONE',  ( -1.000000000000000000, -2.449293598294707770E-17, 0.000000000000000000 ) ) ;
#128 = CARTESIAN_POINT ( 'NONE',  ( -1.420590287010928054E-16, 5.799999999999992717, 0.000000000000000000 ) ) ;
#129 = DIRECTION ( 'NONE',  ( -1.000000000000000000, 0.000000000000000000, 0.000000000000000000 ) ) ;
#130 = STYLED_ITEM ( 'NONE', ( #204 ), #181 ) ;
#131 = CARTESIAN_POINT ( 'NONE',  ( 0.000000000000000000, 0.000000000000000000, 0.000000000000000000 ) ) ;
#132 = PRODUCT_DEFINITION ( 'UNKNOWN', '', #207, #98 ) ;
#133 = PRODUCT_DEFINITION_SHAPE ( 'NONE', 'NONE',  #132 ) ;
#134 = DIRECTION ( 'NONE',  ( -2.449293598294707770E-17, 1.000000000000000000, -0.000000000000000000 ) ) ;
#135 = CARTESIAN_POINT ( 'NONE',  ( -15.00000000000000000, 8.500000000000000000, 0.000000000000000000 ) ) ;
#136 = CARTESIAN_POINT ( 'NONE',  ( 4.799231304517949956E-33, -1.959434878635766216E-16, 0.000000000000000000 ) ) ;
#137 = CARTESIAN_POINT ( 'NONE',  ( -3.061616997868384127E-16, 12.49999999999999822, 0.000000000000000000 ) ) ;
#138 = AXIS2_PLACEMENT_3D ( 'NONE', #94, #161, #69 ) ;
#139 = CYLINDRICAL_SURFACE ( 'NONE', #36, 16.00000000000000000 ) ;
#140 = DIRECTION ( 'NONE',  ( 0.000000000000000000, 0.000000000000000000, 1.000000000000000000 ) ) ;
#141 =( LENGTH_UNIT ( ) NAMED_UNIT ( * ) SI_UNIT ( .MILLI., .METRE. ) );
#142 = SURFACE_STYLE_USAGE ( .BOTH. , #121 ) ;
#143 = ADVANCED_FACE ( 'NONE', ( #152, #116 ), #139, .T. ) ;
#144 = DIRECTION ( 'NONE',  ( 2.449293598294707770E-17, -1.000000000000000000, 0.000000000000000000 ) ) ;
#145 = CIRCLE ( 'NONE', #81, 16.00000000000000000 ) ;
#146 = FACE_BOUND ( 'NONE', #212, .T. ) ;
#147 = DIRECTION ( 'NONE',  ( -1.000000000000000000, -2.449293598294707770E-17, 0.000000000000000000 ) ) ;
#148 = DIRECTION ( 'NONE',  ( -0.000000000000000000, -1.000000000000000000, -0.000000000000000000 ) ) ;
#149 = AXIS2_PLACEMENT_3D ( 'NONE', #54, #186, #34 ) ;
#150 = FACE_OUTER_BOUND ( 'NONE', #160, .T. ) ;
#151 = CARTESIAN_POINT ( 'NONE',  ( -16.00000000000000000, -3.918869757271532432E-16, 0.000000000000000000 ) ) ;
#152 = FACE_OUTER_BOUND ( 'NONE', #55, .T. ) ;
#153 = PLANE ( 'NONE',  #180 ) ;
#154 = DIRECTION ( 'NONE',  ( -1.000000000000000000, 0.000000000000000000, 0.000000000000000000 ) ) ;
#155 = COLOUR_RGB ( '',0.7529411764705882248, 0.7529411764705882248, 0.7529411764705882248 ) ;
#156 = EDGE_CURVE ( 'NONE', #203, #203, #199, .T. ) ;
#157 = MANIFOLD_SOLID_BREP ( 'M20x1.5 Gewindebohrung1', #32 ) ;
#158 = SURFACE_STYLE_FILL_AREA ( #104 ) ;
#159 = VERTEX_POINT ( 'NONE', #74 ) ;
#160 = EDGE_LOOP ( 'NONE', ( #89 ) ) ;
#161 = DIRECTION ( 'NONE',  ( -2.449293598294707770E-17, 1.000000000000000000, -0.000000000000000000 ) ) ;
#162 = ORIENTED_EDGE ( 'NONE', *, *, #40, .F. ) ;
#163 = ORIENTED_EDGE ( 'NONE', *, *, #107, .T. ) ;
#164 = ADVANCED_FACE ( 'NONE', ( #84, #85 ), #153, .F. ) ;
#165 = FACE_OUTER_BOUND ( 'NONE', #182, .T. ) ;
#166 = CARTESIAN_POINT ( 'NONE',  ( 0.000000000000000000, 12.50000000000000000, 0.000000000000000000 ) ) ;
#167 = CIRCLE ( 'NONE', #192, 16.00000000000000000 ) ;
#168 = EDGE_CURVE ( 'NONE', #198, #198, #167, .T. ) ;
#169 =( NAMED_UNIT ( * ) SI_UNIT ( $, .STERADIAN. ) SOLID_ANGLE_UNIT ( ) );
#170 = APPLICATION_CONTEXT ( 'automotive_design' ) ;
#171 = DIRECTION ( 'NONE',  ( -2.449293598294707770E-17, 1.000000000000000000, -0.000000000000000000 ) ) ;
#172 = EDGE_LOOP ( 'NONE', ( #111 ) ) ;
#173 = DIRECTION ( 'NONE',  ( 1.000000000000000000, 0.000000000000000000, 0.000000000000000000 ) ) ;
#174 = ORIENTED_EDGE ( 'NONE', *, *, #156, .T. ) ;
#175 = APPLICATION_CONTEXT ( 'automotive_design' ) ;
#176 = ORIENTED_EDGE ( 'NONE', *, *, #156, .F. ) ;
#177 = CIRCLE ( 'NONE', #50, 9.249999999999994671 ) ;
#178 = APPLICATION_PROTOCOL_DEFINITION ( 'draft international standard', 'automotive_design', 1998, #175 ) ;
#179 = ORIENTED_EDGE ( 'NONE', *, *, #40, .T. ) ;
#180 = AXIS2_PLACEMENT_3D ( 'NONE', #136, #201, #56 ) ;
#181 = ADVANCED_BREP_SHAPE_REPRESENTATION ( '2089564', ( #157, #18 ), #100 ) ;
#182 = EDGE_LOOP ( 'NONE', ( #64 ) ) ;
#183 = CYLINDRICAL_SURFACE ( 'NONE', #105, 9.249999999999991118 ) ;
#184 = FACE_OUTER_BOUND ( 'NONE', #172, .T. ) ;
#185 = CARTESIAN_POINT ( 'NONE',  ( -3.061616997868384127E-16, 12.49999999999999822, 0.000000000000000000 ) ) ;
#186 = DIRECTION ( 'NONE',  ( -2.449293598294707770E-17, 1.000000000000000000, -0.000000000000000000 ) ) ;
#187 = CARTESIAN_POINT ( 'NONE',  ( 9.249999999999991118, 12.50000000000000000, 0.000000000000000000 ) ) ;
#188 = UNCERTAINTY_MEASURE_WITH_UNIT (LENGTH_MEASURE( 1.000000000000000082E-05 ), #75, 'distance_accuracy_value', 'NONE');
#189 = STYLED_ITEM ( 'NONE', ( #20 ), #157 ) ;
#190 = ORIENTED_EDGE ( 'NONE', *, *, #107, .F. ) ;
#191 = MECHANICAL_DESIGN_GEOMETRIC_PRESENTATION_REPRESENTATION (  '', ( #189 ), #59 ) ;
#192 = AXIS2_PLACEMENT_3D ( 'NONE', #1, #3, #58 ) ;
#193 = DIRECTION ( 'NONE',  ( 2.449293598294707770E-17, -1.000000000000000000, 0.000000000000000000 ) ) ;
#194 = DIRECTION ( 'NONE',  ( -1.000000000000000000, 0.000000000000000000, 0.000000000000000000 ) ) ;
#195 = DIRECTION ( 'NONE',  ( 1.000000000000000000, 0.000000000000000000, 0.000000000000000000 ) ) ;
#196 = DIRECTION ( 'NONE',  ( 0.000000000000000000, 0.000000000000000000, -1.000000000000000000 ) ) ;
#197 = PLANE ( 'NONE',  #48 ) ;
#198 = VERTEX_POINT ( 'NONE', #123 ) ;
#199 = CIRCLE ( 'NONE', #108, 15.00000000000000000 ) ;
#200 =( GEOMETRIC_REPRESENTATION_CONTEXT ( 3 ) GLOBAL_UNCERTAINTY_ASSIGNED_CONTEXT ( ( #188 ) ) GLOBAL_UNIT_ASSIGNED_CONTEXT ( ( #75, #102, #88 ) ) REPRESENTATION_CONTEXT ( 'NONE', 'WORKASPACE' ) );
#201 = DIRECTION ( 'NONE',  ( -2.449293598294707770E-17, 1.000000000000000000, 0.000000000000000000 ) ) ;
#202 = SURFACE_STYLE_FILL_AREA ( #38 ) ;
#203 = VERTEX_POINT ( 'NONE', #135 ) ;
#204 = PRESENTATION_STYLE_ASSIGNMENT (( #142 ) ) ;
#205 = ORIENTED_EDGE ( 'NONE', *, *, #24, .F. ) ;
#206 = MECHANICAL_DESIGN_GEOMETRIC_PRESENTATION_REPRESENTATION (  '', ( #130 ), #200 ) ;
#207 = PRODUCT_DEFINITION_FORMATION_WITH_SPECIFIED_SOURCE ( 'ANY', '', #2, .NOT_KNOWN. ) ;
#208 = DIRECTION ( 'NONE',  ( -2.449293598294707770E-17, 1.000000000000000000, 0.000000000000000000 ) ) ;
#209 = EDGE_CURVE ( 'NONE', #159, #159, #53, .T. ) ;
#210 = DIRECTION ( 'NONE',  ( 0.000000000000000000, 0.000000000000000000, -1.000000000000000000 ) ) ;
#211 = EDGE_LOOP ( 'NONE', ( #106 ) ) ;
#212 = EDGE_LOOP ( 'NONE', ( #47 ) ) ;
#213 = CYLINDRICAL_SURFACE ( 'NONE', #138, 15.00000000000000000 ) ;
#214 = UNCERTAINTY_MEASURE_WITH_UNIT (LENGTH_MEASURE( 1.000000000000000082E-05 ), #141, 'distance_accuracy_value', 'NONE');
ENDSEC;
END-ISO-10303-21;
