ISO-10303-21;
HEADER;
FILE_DESCRIPTION (( 'STEP AP214' ),
    '1' );
FILE_NAME ('2089572.stp',
    '2022-11-29T08:42:43',
    ( '' ),
    ( '' ),
    'SwSTEP 2.0',
    'SolidWorks 2020',
    '' );
FILE_SCHEMA (( 'AUTOMOTIVE_DESIGN' ));
ENDSEC;

DATA;
#1 =( NAMED_UNIT ( * ) PLANE_ANGLE_UNIT ( ) SI_UNIT ( $, .RADIAN. ) );
#2 = FACE_OUTER_BOUND ( 'NONE', #189, .T. ) ;
#3 = DIRECTION ( 'NONE',  ( -2.449293598294707770E-17, 1.000000000000000000, -0.000000000000000000 ) ) ;
#4 = CARTESIAN_POINT ( 'NONE',  ( -16.00000000000000000, 5.799999999999992717, 0.000000000000000000 ) ) ;
#5 = DIRECTION ( 'NONE',  ( -2.449293598294707770E-17, 1.000000000000000000, -0.000000000000000000 ) ) ;
#6 = APPLICATION_CONTEXT ( 'automotive_design' ) ;
#7 = AXIS2_PLACEMENT_3D ( 'NONE', #180, #22, #121 ) ;
#8 = MECHANICAL_DESIGN_GEOMETRIC_PRESENTATION_REPRESENTATION (  '', ( #123 ), #28 ) ;
#9 = PRESENTATION_STYLE_ASSIGNMENT (( #92 ) ) ;
#10 = EDGE_LOOP ( 'NONE', ( #159 ) ) ;
#11 = ADVANCED_FACE ( 'NONE', ( #144, #162 ), #47, .T. ) ;
#12 = SURFACE_STYLE_FILL_AREA ( #137 ) ;
#13 = EDGE_LOOP ( 'NONE', ( #206 ) ) ;
#14 = MECHANICAL_DESIGN_GEOMETRIC_PRESENTATION_REPRESENTATION (  '', ( #171 ), #122 ) ;
#15 = SURFACE_SIDE_STYLE ('',( #198 ) ) ;
#16 = DIRECTION ( 'NONE',  ( -2.449293598294707770E-17, 1.000000000000000000, -0.000000000000000000 ) ) ;
#17 = CARTESIAN_POINT ( 'NONE',  ( 15.00000000000000000, 8.500000000000000000, 0.000000000000000000 ) ) ;
#18 = PLANE ( 'NONE',  #146 ) ;
#19 = CARTESIAN_POINT ( 'NONE',  ( -2.081899558550500773E-16, 8.500000000000000000, 0.000000000000000000 ) ) ;
#20 = CARTESIAN_POINT ( 'NONE',  ( -1.420590287010928054E-16, 5.799999999999992717, 0.000000000000000000 ) ) ;
#21 = AXIS2_PLACEMENT_3D ( 'NONE', #111, #30, #97 ) ;
#22 = DIRECTION ( 'NONE',  ( -2.449293598294707770E-17, 1.000000000000000000, -0.000000000000000000 ) ) ;
#23 =( NAMED_UNIT ( * ) SI_UNIT ( $, .STERADIAN. ) SOLID_ANGLE_UNIT ( ) );
#24 = AXIS2_PLACEMENT_3D ( 'NONE', #199, #131, #99 ) ;
#25 = CARTESIAN_POINT ( 'NONE',  ( 4.814824860968089633E-32, 0.000000000000000000, 0.000000000000000000 ) ) ;
#26 = ADVANCED_FACE ( 'NONE', ( #67, #65 ), #18, .F. ) ;
#27 = ORIENTED_EDGE ( 'NONE', *, *, #42, .T. ) ;
#28 =( GEOMETRIC_REPRESENTATION_CONTEXT ( 3 ) GLOBAL_UNCERTAINTY_ASSIGNED_CONTEXT ( ( #213 ) ) GLOBAL_UNIT_ASSIGNED_CONTEXT ( ( #188, #139, #125 ) ) REPRESENTATION_CONTEXT ( 'NONE', 'WORKASPACE' ) );
#29 = EDGE_LOOP ( 'NONE', ( #93 ) ) ;
#30 = DIRECTION ( 'NONE',  ( -2.449293598294707770E-17, 1.000000000000000000, -0.000000000000000000 ) ) ;
#31 = DIRECTION ( 'NONE',  ( -1.000000000000000000, -2.449293598294707770E-17, 0.000000000000000000 ) ) ;
#32 = CIRCLE ( 'NONE', #191, 19.50000000000000000 ) ;
#33 = DIRECTION ( 'NONE',  ( 0.000000000000000000, 0.000000000000000000, -1.000000000000000000 ) ) ;
#34 = EDGE_CURVE ( 'NONE', #152, #152, #32, .T. ) ;
#35 = UNCERTAINTY_MEASURE_WITH_UNIT (LENGTH_MEASURE( 1.000000000000000082E-05 ), #68, 'distance_accuracy_value', 'NONE');
#36 = FACE_OUTER_BOUND ( 'NONE', #29, .T. ) ;
#37 = PRODUCT_RELATED_PRODUCT_CATEGORY ( 'part', '', ( #133 ) ) ;
#38 = CARTESIAN_POINT ( 'NONE',  ( -1.665519646840400865E-16, 6.800000000000000711, 0.000000000000000000 ) ) ;
#39 = FACE_OUTER_BOUND ( 'NONE', #193, .T. ) ;
#40 = DIRECTION ( 'NONE',  ( -1.000000000000000000, 0.000000000000000000, 0.000000000000000000 ) ) ;
#41 = CARTESIAN_POINT ( 'NONE',  ( -16.00000000000000000, -3.918869757271532432E-16, 0.000000000000000000 ) ) ;
#42 = EDGE_CURVE ( 'NONE', #132, #132, #209, .T. ) ;
#43 = ORIENTED_EDGE ( 'NONE', *, *, #110, .T. ) ;
#44 = CLOSED_SHELL ( 'NONE', ( #26, #163, #148, #11, #48, #183, #95, #73 ) ) ;
#45 = EDGE_LOOP ( 'NONE', ( #208 ) ) ;
#46 = DIRECTION ( 'NONE',  ( 1.000000000000000000, 2.449293598294707770E-17, 0.000000000000000000 ) ) ;
#47 = CYLINDRICAL_SURFACE ( 'NONE', #71, 15.00000000000000000 ) ;
#48 = ADVANCED_FACE ( 'NONE', ( #161, #79 ), #78, .F. ) ;
#49 = PRODUCT_DEFINITION_CONTEXT ( 'detailed design', #91, 'design' ) ;
#50 = FILL_AREA_STYLE ('',( #128 ) ) ;
#51 = CIRCLE ( 'NONE', #203, 11.74999999999999112 ) ;
#52 = ORIENTED_EDGE ( 'NONE', *, *, #34, .T. ) ;
#53 = DIRECTION ( 'NONE',  ( -0.000000000000000000, -1.000000000000000000, -0.000000000000000000 ) ) ;
#54 = DIRECTION ( 'NONE',  ( 0.000000000000000000, 0.000000000000000000, -1.000000000000000000 ) ) ;
#55 = AXIS2_PLACEMENT_3D ( 'NONE', #62, #194, #46 ) ;
#56 = CARTESIAN_POINT ( 'NONE',  ( -3.061616997868384127E-16, 12.49999999999999822, 0.000000000000000000 ) ) ;
#57 = FACE_BOUND ( 'NONE', #13, .T. ) ;
#58 = EDGE_CURVE ( 'NONE', #86, #86, #51, .T. ) ;
#59 = DIRECTION ( 'NONE',  ( 1.000000000000000000, 0.000000000000000000, 0.000000000000000000 ) ) ;
#60 = SURFACE_SIDE_STYLE ('',( #12 ) ) ;
#61 = ORIENTED_EDGE ( 'NONE', *, *, #34, .F. ) ;
#62 = CARTESIAN_POINT ( 'NONE',  ( 19.50000000000000000, 12.50000000000000000, 0.000000000000000000 ) ) ;
#63 = CARTESIAN_POINT ( 'NONE',  ( -3.061616997868384127E-16, 12.49999999999999822, 0.000000000000000000 ) ) ;
#64 = SURFACE_STYLE_USAGE ( .BOTH. , #15 ) ;
#65 = FACE_OUTER_BOUND ( 'NONE', #190, .T. ) ;
#66 = MANIFOLD_SOLID_BREP ( 'M25x1.5 Gewindebohrung1', #44 ) ;
#67 = FACE_BOUND ( 'NONE', #108, .T. ) ;
#68 =( LENGTH_UNIT ( ) NAMED_UNIT ( * ) SI_UNIT ( .MILLI., .METRE. ) );
#69 = FACE_OUTER_BOUND ( 'NONE', #109, .T. ) ;
#70 = VERTEX_POINT ( 'NONE', #166 ) ;
#71 = AXIS2_PLACEMENT_3D ( 'NONE', #63, #82, #113 ) ;
#72 = FACE_OUTER_BOUND ( 'NONE', #96, .T. ) ;
#73 = ADVANCED_FACE ( 'NONE', ( #36, #114 ), #81, .F. ) ;
#74 = ORIENTED_EDGE ( 'NONE', *, *, #116, .F. ) ;
#75 = CIRCLE ( 'NONE', #195, 14.99999999999999822 ) ;
#76 = COLOUR_RGB ( '',0.7529411764705882248, 0.7529411764705882248, 0.7529411764705882248 ) ;
#77 = AXIS2_PLACEMENT_3D ( 'NONE', #17, #178, #145 ) ;
#78 = PLANE ( 'NONE',  #77 ) ;
#79 = FACE_BOUND ( 'NONE', #174, .T. ) ;
#80 = PRODUCT_DEFINITION_FORMATION_WITH_SPECIFIED_SOURCE ( 'ANY', '', #133, .NOT_KNOWN. ) ;
#81 = CYLINDRICAL_SURFACE ( 'NONE', #135, 11.74999999999999112 ) ;
#82 = DIRECTION ( 'NONE',  ( -2.449293598294707770E-17, 1.000000000000000000, -0.000000000000000000 ) ) ;
#83 = CARTESIAN_POINT ( 'NONE',  ( 0.000000000000000000, 0.000000000000000000, 0.000000000000000000 ) ) ;
#84 = AXIS2_PLACEMENT_3D ( 'NONE', #20, #102, #118 ) ;
#85 = CARTESIAN_POINT ( 'NONE',  ( 0.000000000000000000, 3.061616997868392509E-16, -11.74999999999999467 ) ) ;
#86 = VERTEX_POINT ( 'NONE', #184 ) ;
#87 = CYLINDRICAL_SURFACE ( 'NONE', #112, 16.00000000000000000 ) ;
#88 = DIRECTION ( 'NONE',  ( -1.000000000000000000, 0.000000000000000000, 0.000000000000000000 ) ) ;
#89 = ORIENTED_EDGE ( 'NONE', *, *, #170, .T. ) ;
#90 = CARTESIAN_POINT ( 'NONE',  ( 0.000000000000000000, 0.000000000000000000, 0.000000000000000000 ) ) ;
#91 = APPLICATION_CONTEXT ( 'automotive_design' ) ;
#92 = SURFACE_STYLE_USAGE ( .BOTH. , #60 ) ;
#93 = ORIENTED_EDGE ( 'NONE', *, *, #116, .T. ) ;
#94 = EDGE_LOOP ( 'NONE', ( #155 ) ) ;
#95 = ADVANCED_FACE ( 'NONE', ( #100, #165 ), #150, .F. ) ;
#96 = EDGE_LOOP ( 'NONE', ( #158 ) ) ;
#97 = DIRECTION ( 'NONE',  ( -1.000000000000000000, 0.000000000000000000, 0.000000000000000000 ) ) ;
#98 = DIRECTION ( 'NONE',  ( -1.000000000000000000, 0.000000000000000000, 0.000000000000000000 ) ) ;
#99 = DIRECTION ( 'NONE',  ( -1.000000000000000000, 0.000000000000000000, 0.000000000000000000 ) ) ;
#100 = FACE_BOUND ( 'NONE', #45, .T. ) ;
#101 = DIRECTION ( 'NONE',  ( 2.449293598294707770E-17, -1.000000000000000000, 0.000000000000000000 ) ) ;
#102 = DIRECTION ( 'NONE',  ( 2.449293598294707770E-17, -1.000000000000000000, 0.000000000000000000 ) ) ;
#103 = CIRCLE ( 'NONE', #7, 15.00000000000000000 ) ;
#104 = CYLINDRICAL_SURFACE ( 'NONE', #119, 19.50000000000000000 ) ;
#105 = CARTESIAN_POINT ( 'NONE',  ( -19.50000000000000000, 8.500000000000000000, 0.000000000000000000 ) ) ;
#106 = PRESENTATION_LAYER_ASSIGNMENT (  '', '', ( #171 ) ) ;
#107 = DIRECTION ( 'NONE',  ( -2.449293598294707770E-17, 1.000000000000000000, -0.000000000000000000 ) ) ;
#108 = EDGE_LOOP ( 'NONE', ( #74 ) ) ;
#109 = EDGE_LOOP ( 'NONE', ( #124 ) ) ;
#110 = EDGE_CURVE ( 'NONE', #120, #120, #164, .T. ) ;
#111 = CARTESIAN_POINT ( 'NONE',  ( -1.420590287010928054E-16, 5.799999999999992717, 0.000000000000000000 ) ) ;
#112 = AXIS2_PLACEMENT_3D ( 'NONE', #56, #3, #40 ) ;
#113 = DIRECTION ( 'NONE',  ( -1.000000000000000000, 0.000000000000000000, 0.000000000000000000 ) ) ;
#114 = FACE_OUTER_BOUND ( 'NONE', #141, .T. ) ;
#115 = CARTESIAN_POINT ( 'NONE',  ( 4.799231304517949956E-33, -1.959434878635766216E-16, 0.000000000000000000 ) ) ;
#116 = EDGE_CURVE ( 'NONE', #182, #182, #138, .T. ) ;
#117 = DIRECTION ( 'NONE',  ( -1.000000000000000000, -2.449293598294707770E-17, 0.000000000000000000 ) ) ;
#118 = DIRECTION ( 'NONE',  ( 1.000000000000000000, 0.000000000000000000, 0.000000000000000000 ) ) ;
#119 = AXIS2_PLACEMENT_3D ( 'NONE', #134, #5, #88 ) ;
#120 = VERTEX_POINT ( 'NONE', #4 ) ;
#121 = DIRECTION ( 'NONE',  ( -1.000000000000000000, 0.000000000000000000, 0.000000000000000000 ) ) ;
#122 =( GEOMETRIC_REPRESENTATION_CONTEXT ( 3 ) GLOBAL_UNCERTAINTY_ASSIGNED_CONTEXT ( ( #177 ) ) GLOBAL_UNIT_ASSIGNED_CONTEXT ( ( #149, #1, #130 ) ) REPRESENTATION_CONTEXT ( 'NONE', 'WORKASPACE' ) );
#123 = STYLED_ITEM ( 'NONE', ( #9 ), #136 ) ;
#124 = ORIENTED_EDGE ( 'NONE', *, *, #110, .F. ) ;
#125 =( NAMED_UNIT ( * ) SI_UNIT ( $, .STERADIAN. ) SOLID_ANGLE_UNIT ( ) );
#126 = ORIENTED_EDGE ( 'NONE', *, *, #210, .F. ) ;
#127 = EDGE_CURVE ( 'NONE', #70, #70, #75, .T. ) ;
#128 = FILL_AREA_STYLE_COLOUR ( '', #185 ) ;
#129 = CONICAL_SURFACE ( 'NONE', #84, 16.00000000000000000, 0.7853981633974457255 ) ;
#130 =( NAMED_UNIT ( * ) SI_UNIT ( $, .STERADIAN. ) SOLID_ANGLE_UNIT ( ) );
#131 = DIRECTION ( 'NONE',  ( -2.449293598294707770E-17, 1.000000000000000000, -0.000000000000000000 ) ) ;
#132 = VERTEX_POINT ( 'NONE', #168 ) ;
#133 = PRODUCT ( '2089572', '2089572', '', ( #156 ) ) ;
#134 = CARTESIAN_POINT ( 'NONE',  ( -3.061616997868384127E-16, 12.49999999999999822, 0.000000000000000000 ) ) ;
#135 = AXIS2_PLACEMENT_3D ( 'NONE', #83, #196, #33 ) ;
#136 = ADVANCED_BREP_SHAPE_REPRESENTATION ( '2089572', ( #66, #197 ), #192 ) ;
#137 = FILL_AREA_STYLE ('',( #154 ) ) ;
#138 = CIRCLE ( 'NONE', #167, 11.74999999999999467 ) ;
#139 =( NAMED_UNIT ( * ) PLANE_ANGLE_UNIT ( ) SI_UNIT ( $, .RADIAN. ) );
#140 = SHAPE_DEFINITION_REPRESENTATION ( #181, #136 ) ;
#141 = EDGE_LOOP ( 'NONE', ( #175 ) ) ;
#142 = DIRECTION ( 'NONE',  ( 0.000000000000000000, 0.000000000000000000, 1.000000000000000000 ) ) ;
#143 = PRESENTATION_LAYER_ASSIGNMENT (  '', '', ( #123 ) ) ;
#144 = FACE_OUTER_BOUND ( 'NONE', #10, .T. ) ;
#145 = DIRECTION ( 'NONE',  ( -1.000000000000000000, -2.449293598294707770E-17, 0.000000000000000000 ) ) ;
#146 = AXIS2_PLACEMENT_3D ( 'NONE', #115, #147, #31 ) ;
#147 = DIRECTION ( 'NONE',  ( -2.449293598294707770E-17, 1.000000000000000000, 0.000000000000000000 ) ) ;
#148 = ADVANCED_FACE ( 'NONE', ( #57, #39 ), #129, .T. ) ;
#149 =( LENGTH_UNIT ( ) NAMED_UNIT ( * ) SI_UNIT ( .MILLI., .METRE. ) );
#150 = PLANE ( 'NONE',  #55 ) ;
#151 = CARTESIAN_POINT ( 'NONE',  ( -15.00000000000000000, 8.500000000000000000, 0.000000000000000000 ) ) ;
#152 = VERTEX_POINT ( 'NONE', #105 ) ;
#153 = FACE_OUTER_BOUND ( 'NONE', #187, .T. ) ;
#154 = FILL_AREA_STYLE_COLOUR ( '', #76 ) ;
#155 = ORIENTED_EDGE ( 'NONE', *, *, #127, .T. ) ;
#156 = PRODUCT_CONTEXT ( 'NONE', #6, 'mechanical' ) ;
#157 = ORIENTED_EDGE ( 'NONE', *, *, #210, .T. ) ;
#158 = ORIENTED_EDGE ( 'NONE', *, *, #42, .F. ) ;
#159 = ORIENTED_EDGE ( 'NONE', *, *, #170, .F. ) ;
#160 = PRESENTATION_STYLE_ASSIGNMENT (( #64 ) ) ;
#161 = FACE_OUTER_BOUND ( 'NONE', #214, .T. ) ;
#162 = FACE_OUTER_BOUND ( 'NONE', #94, .T. ) ;
#163 = ADVANCED_FACE ( 'NONE', ( #69, #2 ), #87, .T. ) ;
#164 = CIRCLE ( 'NONE', #21, 16.00000000000000000 ) ;
#165 = FACE_OUTER_BOUND ( 'NONE', #173, .T. ) ;
#166 = CARTESIAN_POINT ( 'NONE',  ( -14.99999999999999822, 6.800000000000000711, 0.000000000000000000 ) ) ;
#167 = AXIS2_PLACEMENT_3D ( 'NONE', #205, #53, #54 ) ;
#168 = CARTESIAN_POINT ( 'NONE',  ( -19.50000000000000000, 12.50000000000000178, 0.000000000000000000 ) ) ;
#169 = APPLICATION_PROTOCOL_DEFINITION ( 'draft international standard', 'automotive_design', 1998, #6 ) ;
#170 = EDGE_CURVE ( 'NONE', #201, #201, #103, .T. ) ;
#171 = STYLED_ITEM ( 'NONE', ( #160 ), #66 ) ;
#172 = VERTEX_POINT ( 'NONE', #41 ) ;
#173 = EDGE_LOOP ( 'NONE', ( #27 ) ) ;
#174 = EDGE_LOOP ( 'NONE', ( #89 ) ) ;
#175 = ORIENTED_EDGE ( 'NONE', *, *, #58, .F. ) ;
#176 = PRODUCT_DEFINITION ( 'UNKNOWN', '', #80, #49 ) ;
#177 = UNCERTAINTY_MEASURE_WITH_UNIT (LENGTH_MEASURE( 1.000000000000000082E-05 ), #149, 'distance_accuracy_value', 'NONE');
#178 = DIRECTION ( 'NONE',  ( -2.449293598294707770E-17, 1.000000000000000000, 0.000000000000000000 ) ) ;
#179 = DIRECTION ( 'NONE',  ( -2.449293598294707770E-17, 1.000000000000000000, -0.000000000000000000 ) ) ;
#180 = CARTESIAN_POINT ( 'NONE',  ( -2.081899558550501266E-16, 8.500000000000000000, 0.000000000000000000 ) ) ;
#181 = PRODUCT_DEFINITION_SHAPE ( 'NONE', 'NONE',  #176 ) ;
#182 = VERTEX_POINT ( 'NONE', #85 ) ;
#183 = ADVANCED_FACE ( 'NONE', ( #72, #153 ), #104, .T. ) ;
#184 = CARTESIAN_POINT ( 'NONE',  ( 11.74999999999999112, 12.50000000000000000, 0.000000000000000000 ) ) ;
#185 = COLOUR_RGB ( '',0.7529411764705882248, 0.7529411764705882248, 0.7529411764705882248 ) ;
#186 = CIRCLE ( 'NONE', #202, 16.00000000000000000 ) ;
#187 = EDGE_LOOP ( 'NONE', ( #52 ) ) ;
#188 =( LENGTH_UNIT ( ) NAMED_UNIT ( * ) SI_UNIT ( .MILLI., .METRE. ) );
#189 = EDGE_LOOP ( 'NONE', ( #157 ) ) ;
#190 = EDGE_LOOP ( 'NONE', ( #126 ) ) ;
#191 = AXIS2_PLACEMENT_3D ( 'NONE', #19, #16, #98 ) ;
#192 =( GEOMETRIC_REPRESENTATION_CONTEXT ( 3 ) GLOBAL_UNCERTAINTY_ASSIGNED_CONTEXT ( ( #35 ) ) GLOBAL_UNIT_ASSIGNED_CONTEXT ( ( #68, #204, #23 ) ) REPRESENTATION_CONTEXT ( 'NONE', 'WORKASPACE' ) );
#193 = EDGE_LOOP ( 'NONE', ( #43 ) ) ;
#194 = DIRECTION ( 'NONE',  ( 2.449293598294707770E-17, -1.000000000000000000, 0.000000000000000000 ) ) ;
#195 = AXIS2_PLACEMENT_3D ( 'NONE', #38, #107, #200 ) ;
#196 = DIRECTION ( 'NONE',  ( -0.000000000000000000, -1.000000000000000000, -0.000000000000000000 ) ) ;
#197 = AXIS2_PLACEMENT_3D ( 'NONE', #90, #142, #59 ) ;
#198 = SURFACE_STYLE_FILL_AREA ( #50 ) ;
#199 = CARTESIAN_POINT ( 'NONE',  ( -3.061616997868385113E-16, 12.50000000000000178, 0.000000000000000000 ) ) ;
#200 = DIRECTION ( 'NONE',  ( -1.000000000000000000, 0.000000000000000000, 0.000000000000000000 ) ) ;
#201 = VERTEX_POINT ( 'NONE', #151 ) ;
#202 = AXIS2_PLACEMENT_3D ( 'NONE', #25, #179, #117 ) ;
#203 = AXIS2_PLACEMENT_3D ( 'NONE', #212, #101, #211 ) ;
#204 =( NAMED_UNIT ( * ) PLANE_ANGLE_UNIT ( ) SI_UNIT ( $, .RADIAN. ) );
#205 = CARTESIAN_POINT ( 'NONE',  ( 0.000000000000000000, 3.061616997868392509E-16, 0.000000000000000000 ) ) ;
#206 = ORIENTED_EDGE ( 'NONE', *, *, #127, .F. ) ;
#207 = APPLICATION_PROTOCOL_DEFINITION ( 'draft international standard', 'automotive_design', 1998, #91 ) ;
#208 = ORIENTED_EDGE ( 'NONE', *, *, #58, .T. ) ;
#209 = CIRCLE ( 'NONE', #24, 19.50000000000000000 ) ;
#210 = EDGE_CURVE ( 'NONE', #172, #172, #186, .T. ) ;
#211 = DIRECTION ( 'NONE',  ( 1.000000000000000000, 0.000000000000000000, 0.000000000000000000 ) ) ;
#212 = CARTESIAN_POINT ( 'NONE',  ( 0.000000000000000000, 12.50000000000000000, 0.000000000000000000 ) ) ;
#213 = UNCERTAINTY_MEASURE_WITH_UNIT (LENGTH_MEASURE( 1.000000000000000082E-05 ), #188, 'distance_accuracy_value', 'NONE');
#214 = EDGE_LOOP ( 'NONE', ( #61 ) ) ;
ENDSEC;
END-ISO-10303-21;
