ISO-10303-21;
HEADER;
FILE_DESCRIPTION (( 'STEP AP214' ),
    '1' );
FILE_NAME ('2089580.stp',
    '2022-11-29T08:43:33',
    ( '' ),
    ( '' ),
    'SwSTEP 2.0',
    'SolidWorks 2020',
    '' );
FILE_SCHEMA (( 'AUTOMOTIVE_DESIGN' ));
ENDSEC;

DATA;
#1 = APPLICATION_CONTEXT ( 'automotive_design' ) ;
#2 =( NAMED_UNIT ( * ) SI_UNIT ( $, .STERADIAN. ) SOLID_ANGLE_UNIT ( ) );
#3 = SURFACE_STYLE_USAGE ( .BOTH. , #56 ) ;
#4 = SURFACE_STYLE_FILL_AREA ( #90 ) ;
#5 = FACE_OUTER_BOUND ( 'NONE', #104, .T. ) ;
#6 = PRODUCT_DEFINITION ( 'UNKNOWN', '', #200, #96 ) ;
#7 =( NAMED_UNIT ( * ) PLANE_ANGLE_UNIT ( ) SI_UNIT ( $, .RADIAN. ) );
#8 =( NAMED_UNIT ( * ) SI_UNIT ( $, .STERADIAN. ) SOLID_ANGLE_UNIT ( ) );
#9 = FACE_BOUND ( 'NONE', #17, .T. ) ;
#10 = STYLED_ITEM ( 'NONE', ( #140 ), #37 ) ;
#11 = VERTEX_POINT ( 'NONE', #97 ) ;
#12 = CARTESIAN_POINT ( 'NONE',  ( -3.061616997868384127E-16, 12.49999999999999822, 0.000000000000000000 ) ) ;
#13 =( NAMED_UNIT ( * ) SI_UNIT ( $, .STERADIAN. ) SOLID_ANGLE_UNIT ( ) );
#14 = FILL_AREA_STYLE ('',( #66 ) ) ;
#15 = EDGE_LOOP ( 'NONE', ( #138 ) ) ;
#16 = AXIS2_PLACEMENT_3D ( 'NONE', #159, #193, #31 ) ;
#17 = EDGE_LOOP ( 'NONE', ( #154 ) ) ;
#18 = EDGE_CURVE ( 'NONE', #211, #211, #213, .T. ) ;
#19 = EDGE_LOOP ( 'NONE', ( #52 ) ) ;
#20 = ORIENTED_EDGE ( 'NONE', *, *, #186, .F. ) ;
#21 = ORIENTED_EDGE ( 'NONE', *, *, #27, .T. ) ;
#22 = ADVANCED_BREP_SHAPE_REPRESENTATION ( '2089580', ( #37, #77 ), #83 ) ;
#23 = FACE_OUTER_BOUND ( 'NONE', #87, .T. ) ;
#24 =( LENGTH_UNIT ( ) NAMED_UNIT ( * ) SI_UNIT ( .MILLI., .METRE. ) );
#25 = PRESENTATION_LAYER_ASSIGNMENT (  '', '', ( #10 ) ) ;
#26 = CARTESIAN_POINT ( 'NONE',  ( 25.00000000000000000, 12.50000000000000000, 0.000000000000000000 ) ) ;
#27 = EDGE_CURVE ( 'NONE', #11, #11, #161, .T. ) ;
#28 = CYLINDRICAL_SURFACE ( 'NONE', #54, 20.00000000000000355 ) ;
#29 = DIRECTION ( 'NONE',  ( 1.000000000000000000, 2.449293598294707770E-17, 0.000000000000000000 ) ) ;
#30 = AXIS2_PLACEMENT_3D ( 'NONE', #94, #209, #59 ) ;
#31 = DIRECTION ( 'NONE',  ( 1.000000000000000000, 4.336808689942017120E-17, 0.000000000000000000 ) ) ;
#32 = DIRECTION ( 'NONE',  ( 0.000000000000000000, 0.000000000000000000, -1.000000000000000000 ) ) ;
#33 = FACE_OUTER_BOUND ( 'NONE', #39, .T. ) ;
#34 = EDGE_LOOP ( 'NONE', ( #111 ) ) ;
#35 = EDGE_CURVE ( 'NONE', #47, #47, #143, .T. ) ;
#36 = EDGE_LOOP ( 'NONE', ( #106 ) ) ;
#37 = MANIFOLD_SOLID_BREP ( 'M25x1.5 Gewindebohrung1', #128 ) ;
#38 = AXIS2_PLACEMENT_3D ( 'NONE', #110, #202, #206 ) ;
#39 = EDGE_LOOP ( 'NONE', ( #20 ) ) ;
#40 = EDGE_LOOP ( 'NONE', ( #88 ) ) ;
#41 = DIRECTION ( 'NONE',  ( -2.449293598294707770E-17, 1.000000000000000000, -0.000000000000000000 ) ) ;
#42 = DIRECTION ( 'NONE',  ( -1.000000000000000000, -4.565061778886333551E-17, 0.000000000000000000 ) ) ;
#43 = CARTESIAN_POINT ( 'NONE',  ( 4.814824860968089633E-32, 0.000000000000000000, 0.000000000000000000 ) ) ;
#44 = AXIS2_PLACEMENT_3D ( 'NONE', #204, #41, #191 ) ;
#45 = CARTESIAN_POINT ( 'NONE',  ( -25.00000000000000000, 12.50000000000000178, 0.000000000000000000 ) ) ;
#46 = FACE_BOUND ( 'NONE', #19, .T. ) ;
#47 = VERTEX_POINT ( 'NONE', #64 ) ;
#48 = UNCERTAINTY_MEASURE_WITH_UNIT (LENGTH_MEASURE( 1.000000000000000082E-05 ), #196, 'distance_accuracy_value', 'NONE');
#49 = CIRCLE ( 'NONE', #195, 20.00000000000000355 ) ;
#50 = VERTEX_POINT ( 'NONE', #135 ) ;
#51 = EDGE_LOOP ( 'NONE', ( #103 ) ) ;
#52 = ORIENTED_EDGE ( 'NONE', *, *, #168, .F. ) ;
#53 = EDGE_CURVE ( 'NONE', #145, #145, #113, .T. ) ;
#54 = AXIS2_PLACEMENT_3D ( 'NONE', #12, #146, #177 ) ;
#55 = CARTESIAN_POINT ( 'NONE',  ( -1.665519646840400618E-16, 6.799999999999999822, 0.000000000000000000 ) ) ;
#56 = SURFACE_SIDE_STYLE ('',( #4 ) ) ;
#57 = ADVANCED_FACE ( 'NONE', ( #58, #171 ), #91, .F. ) ;
#58 = FACE_OUTER_BOUND ( 'NONE', #107, .T. ) ;
#59 = DIRECTION ( 'NONE',  ( -1.000000000000000000, 0.000000000000000000, 0.000000000000000000 ) ) ;
#60 = CIRCLE ( 'NONE', #30, 25.00000000000000000 ) ;
#61 = FACE_BOUND ( 'NONE', #36, .T. ) ;
#62 = FACE_OUTER_BOUND ( 'NONE', #51, .T. ) ;
#63 = PRODUCT_DEFINITION_SHAPE ( 'NONE', 'NONE',  #6 ) ;
#64 = CARTESIAN_POINT ( 'NONE',  ( -25.00000000000000000, 8.500000000000000000, 0.000000000000000000 ) ) ;
#65 =( NAMED_UNIT ( * ) PLANE_ANGLE_UNIT ( ) SI_UNIT ( $, .RADIAN. ) );
#66 = FILL_AREA_STYLE_COLOUR ( '', #180 ) ;
#67 = ORIENTED_EDGE ( 'NONE', *, *, #85, .F. ) ;
#68 = APPLICATION_PROTOCOL_DEFINITION ( 'draft international standard', 'automotive_design', 1998, #1 ) ;
#69 =( GEOMETRIC_REPRESENTATION_CONTEXT ( 3 ) GLOBAL_UNCERTAINTY_ASSIGNED_CONTEXT ( ( #81 ) ) GLOBAL_UNIT_ASSIGNED_CONTEXT ( ( #24, #7, #2 ) ) REPRESENTATION_CONTEXT ( 'NONE', 'WORKASPACE' ) );
#70 = APPLICATION_PROTOCOL_DEFINITION ( 'draft international standard', 'automotive_design', 1998, #197 ) ;
#71 = CYLINDRICAL_SURFACE ( 'NONE', #44, 19.00000000000000355 ) ;
#72 = DIRECTION ( 'NONE',  ( 0.000000000000000000, 0.000000000000000000, -1.000000000000000000 ) ) ;
#73 = DIRECTION ( 'NONE',  ( 2.449293598294707770E-17, -1.000000000000000000, 0.000000000000000000 ) ) ;
#74 = FACE_OUTER_BOUND ( 'NONE', #15, .T. ) ;
#75 = ADVANCED_FACE ( 'NONE', ( #5, #141 ), #127, .T. ) ;
#76 = DIRECTION ( 'NONE',  ( 2.449293598294707770E-17, -1.000000000000000000, 0.000000000000000000 ) ) ;
#77 = AXIS2_PLACEMENT_3D ( 'NONE', #179, #181, #84 ) ;
#78 = VERTEX_POINT ( 'NONE', #114 ) ;
#79 = DIRECTION ( 'NONE',  ( -2.449293598294707770E-17, 1.000000000000000000, 0.000000000000000000 ) ) ;
#80 = PLANE ( 'NONE',  #139 ) ;
#81 = UNCERTAINTY_MEASURE_WITH_UNIT (LENGTH_MEASURE( 1.000000000000000082E-05 ), #24, 'distance_accuracy_value', 'NONE');
#82 = ADVANCED_FACE ( 'NONE', ( #23, #187 ), #71, .T. ) ;
#83 =( GEOMETRIC_REPRESENTATION_CONTEXT ( 3 ) GLOBAL_UNCERTAINTY_ASSIGNED_CONTEXT ( ( #48 ) ) GLOBAL_UNIT_ASSIGNED_CONTEXT ( ( #196, #65, #8 ) ) REPRESENTATION_CONTEXT ( 'NONE', 'WORKASPACE' ) );
#84 = DIRECTION ( 'NONE',  ( 1.000000000000000000, 0.000000000000000000, 0.000000000000000000 ) ) ;
#85 = EDGE_CURVE ( 'NONE', #175, #175, #151, .T. ) ;
#86 = SHAPE_DEFINITION_REPRESENTATION ( #63, #22 ) ;
#87 = EDGE_LOOP ( 'NONE', ( #137 ) ) ;
#88 = ORIENTED_EDGE ( 'NONE', *, *, #35, .T. ) ;
#89 = STYLED_ITEM ( 'NONE', ( #199 ), #22 ) ;
#90 = FILL_AREA_STYLE ('',( #153 ) ) ;
#91 = CYLINDRICAL_SURFACE ( 'NONE', #188, 11.74999999999999112 ) ;
#92 = CIRCLE ( 'NONE', #118, 11.74999999999999467 ) ;
#93 = VERTEX_POINT ( 'NONE', #45 ) ;
#94 = CARTESIAN_POINT ( 'NONE',  ( -3.061616997868384620E-16, 12.50000000000000178, 0.000000000000000000 ) ) ;
#95 = AXIS2_PLACEMENT_3D ( 'NONE', #126, #189, #167 ) ;
#96 = PRODUCT_DEFINITION_CONTEXT ( 'detailed design', #197, 'design' ) ;
#97 = CARTESIAN_POINT ( 'NONE',  ( -19.00000000000000355, 6.799999999999998934, 0.000000000000000000 ) ) ;
#98 = ADVANCED_FACE ( 'NONE', ( #112, #74 ), #130, .F. ) ;
#99 = SURFACE_STYLE_USAGE ( .BOTH. , #101 ) ;
#100 = PRESENTATION_LAYER_ASSIGNMENT (  '', '', ( #89 ) ) ;
#101 = SURFACE_SIDE_STYLE ('',( #183 ) ) ;
#102 = ORIENTED_EDGE ( 'NONE', *, *, #186, .T. ) ;
#103 = ORIENTED_EDGE ( 'NONE', *, *, #35, .F. ) ;
#104 = EDGE_LOOP ( 'NONE', ( #123 ) ) ;
#105 = PRODUCT_CONTEXT ( 'NONE', #1, 'mechanical' ) ;
#106 = ORIENTED_EDGE ( 'NONE', *, *, #27, .F. ) ;
#107 = EDGE_LOOP ( 'NONE', ( #165 ) ) ;
#108 = MECHANICAL_DESIGN_GEOMETRIC_PRESENTATION_REPRESENTATION (  '', ( #10 ), #69 ) ;
#109 = DIRECTION ( 'NONE',  ( -1.000000000000000000, 0.000000000000000000, 0.000000000000000000 ) ) ;
#110 = CARTESIAN_POINT ( 'NONE',  ( -2.081899558550500773E-16, 8.500000000000000000, 0.000000000000000000 ) ) ;
#111 = ORIENTED_EDGE ( 'NONE', *, *, #18, .T. ) ;
#112 = FACE_BOUND ( 'NONE', #34, .T. ) ;
#113 = CIRCLE ( 'NONE', #95, 19.00000000000000000 ) ;
#114 = CARTESIAN_POINT ( 'NONE',  ( 0.000000000000000000, 3.061616997868392509E-16, -11.74999999999999467 ) ) ;
#115 = EDGE_CURVE ( 'NONE', #93, #93, #60, .T. ) ;
#116 = DIRECTION ( 'NONE',  ( -2.449293598294707770E-17, 1.000000000000000000, 0.000000000000000000 ) ) ;
#117 = CARTESIAN_POINT ( 'NONE',  ( -19.00000000000000000, 8.500000000000000000, 0.000000000000000000 ) ) ;
#118 = AXIS2_PLACEMENT_3D ( 'NONE', #120, #134, #32 ) ;
#119 = DIRECTION ( 'NONE',  ( -1.000000000000000000, -2.449293598294707770E-17, 0.000000000000000000 ) ) ;
#120 = CARTESIAN_POINT ( 'NONE',  ( 0.000000000000000000, 3.061616997868392509E-16, 0.000000000000000000 ) ) ;
#121 = EDGE_LOOP ( 'NONE', ( #102 ) ) ;
#122 = AXIS2_PLACEMENT_3D ( 'NONE', #190, #73, #172 ) ;
#123 = ORIENTED_EDGE ( 'NONE', *, *, #115, .F. ) ;
#124 = ADVANCED_FACE ( 'NONE', ( #61, #144 ), #182, .T. ) ;
#125 = COLOUR_RGB ( '',0.7529411764705882248, 0.7529411764705882248, 0.7529411764705882248 ) ;
#126 = CARTESIAN_POINT ( 'NONE',  ( -2.081899558550500773E-16, 8.500000000000000000, 0.000000000000000000 ) ) ;
#127 = CYLINDRICAL_SURFACE ( 'NONE', #163, 25.00000000000000000 ) ;
#128 = CLOSED_SHELL ( 'NONE', ( #210, #201, #124, #82, #136, #75, #98, #57 ) ) ;
#129 = DIRECTION ( 'NONE',  ( -2.449293598294707770E-17, 1.000000000000000000, -0.000000000000000000 ) ) ;
#130 = PLANE ( 'NONE',  #148 ) ;
#131 = CARTESIAN_POINT ( 'NONE',  ( -3.061616997868384127E-16, 12.49999999999999822, 0.000000000000000000 ) ) ;
#132 = CARTESIAN_POINT ( 'NONE',  ( -1.420590287010928793E-16, 5.799999999999995381, 0.000000000000000000 ) ) ;
#133 = DIRECTION ( 'NONE',  ( -1.000000000000000000, -4.336808689942017120E-17, 0.000000000000000000 ) ) ;
#134 = DIRECTION ( 'NONE',  ( -0.000000000000000000, -1.000000000000000000, -0.000000000000000000 ) ) ;
#135 = CARTESIAN_POINT ( 'NONE',  ( -20.00000000000000355, 5.799999999999994493, 0.000000000000000000 ) ) ;
#136 = ADVANCED_FACE ( 'NONE', ( #62, #9 ), #174, .F. ) ;
#137 = ORIENTED_EDGE ( 'NONE', *, *, #53, .F. ) ;
#138 = ORIENTED_EDGE ( 'NONE', *, *, #115, .T. ) ;
#139 = AXIS2_PLACEMENT_3D ( 'NONE', #178, #116, #158 ) ;
#140 = PRESENTATION_STYLE_ASSIGNMENT (( #3 ) ) ;
#141 = FACE_OUTER_BOUND ( 'NONE', #40, .T. ) ;
#142 = EDGE_LOOP ( 'NONE', ( #67 ) ) ;
#143 = CIRCLE ( 'NONE', #38, 25.00000000000000000 ) ;
#144 = FACE_OUTER_BOUND ( 'NONE', #121, .T. ) ;
#145 = VERTEX_POINT ( 'NONE', #117 ) ;
#146 = DIRECTION ( 'NONE',  ( -2.449293598294707770E-17, 1.000000000000000000, -0.000000000000000000 ) ) ;
#147 = CARTESIAN_POINT ( 'NONE',  ( -20.00000000000000355, -4.898587196589416773E-16, 0.000000000000000000 ) ) ;
#148 = AXIS2_PLACEMENT_3D ( 'NONE', #26, #76, #29 ) ;
#149 =( NAMED_UNIT ( * ) PLANE_ANGLE_UNIT ( ) SI_UNIT ( $, .RADIAN. ) );
#150 = EDGE_LOOP ( 'NONE', ( #157 ) ) ;
#151 = CIRCLE ( 'NONE', #214, 20.00000000000000355 ) ;
#152 = AXIS2_PLACEMENT_3D ( 'NONE', #55, #203, #42 ) ;
#153 = FILL_AREA_STYLE_COLOUR ( '', #125 ) ;
#154 = ORIENTED_EDGE ( 'NONE', *, *, #53, .T. ) ;
#155 = DIRECTION ( 'NONE',  ( -1.000000000000000000, -2.449293598294708078E-17, 0.000000000000000000 ) ) ;
#156 = PRODUCT ( '2089580', '2089580', '', ( #105 ) ) ;
#157 = ORIENTED_EDGE ( 'NONE', *, *, #85, .T. ) ;
#158 = DIRECTION ( 'NONE',  ( -1.000000000000000000, -2.449293598294707770E-17, 0.000000000000000000 ) ) ;
#159 = CARTESIAN_POINT ( 'NONE',  ( -1.420590287010928793E-16, 5.799999999999995381, 0.000000000000000000 ) ) ;
#160 = DIRECTION ( 'NONE',  ( -2.449293598294707770E-17, 1.000000000000000000, -0.000000000000000000 ) ) ;
#161 = CIRCLE ( 'NONE', #152, 19.00000000000000355 ) ;
#162 = CARTESIAN_POINT ( 'NONE',  ( 19.00000000000000000, 8.500000000000000000, 0.000000000000000000 ) ) ;
#163 = AXIS2_PLACEMENT_3D ( 'NONE', #131, #173, #109 ) ;
#164 = PRODUCT_RELATED_PRODUCT_CATEGORY ( 'part', '', ( #156 ) ) ;
#165 = ORIENTED_EDGE ( 'NONE', *, *, #168, .T. ) ;
#166 = ORIENTED_EDGE ( 'NONE', *, *, #18, .F. ) ;
#167 = DIRECTION ( 'NONE',  ( -1.000000000000000000, 0.000000000000000000, 0.000000000000000000 ) ) ;
#168 = EDGE_CURVE ( 'NONE', #78, #78, #92, .T. ) ;
#169 =( GEOMETRIC_REPRESENTATION_CONTEXT ( 3 ) GLOBAL_UNCERTAINTY_ASSIGNED_CONTEXT ( ( #176 ) ) GLOBAL_UNIT_ASSIGNED_CONTEXT ( ( #212, #149, #13 ) ) REPRESENTATION_CONTEXT ( 'NONE', 'WORKASPACE' ) );
#170 = CARTESIAN_POINT ( 'NONE',  ( 0.000000000000000000, 0.000000000000000000, 0.000000000000000000 ) ) ;
#171 = FACE_OUTER_BOUND ( 'NONE', #198, .T. ) ;
#172 = DIRECTION ( 'NONE',  ( 1.000000000000000000, 0.000000000000000000, 0.000000000000000000 ) ) ;
#173 = DIRECTION ( 'NONE',  ( -2.449293598294707770E-17, 1.000000000000000000, -0.000000000000000000 ) ) ;
#174 = PLANE ( 'NONE',  #205 ) ;
#175 = VERTEX_POINT ( 'NONE', #147 ) ;
#176 = UNCERTAINTY_MEASURE_WITH_UNIT (LENGTH_MEASURE( 1.000000000000000082E-05 ), #212, 'distance_accuracy_value', 'NONE');
#177 = DIRECTION ( 'NONE',  ( -1.000000000000000000, 0.000000000000000000, 0.000000000000000000 ) ) ;
#178 = CARTESIAN_POINT ( 'NONE',  ( 5.999039130647438642E-33, -2.449293598294708386E-16, 0.000000000000000000 ) ) ;
#179 = CARTESIAN_POINT ( 'NONE',  ( 0.000000000000000000, 0.000000000000000000, 0.000000000000000000 ) ) ;
#180 = COLOUR_RGB ( '',0.7529411764705882248, 0.7529411764705882248, 0.7529411764705882248 ) ;
#181 = DIRECTION ( 'NONE',  ( 0.000000000000000000, 0.000000000000000000, 1.000000000000000000 ) ) ;
#182 = CONICAL_SURFACE ( 'NONE', #16, 20.00000000000000355, 0.7853981633974466137 ) ;
#183 = SURFACE_STYLE_FILL_AREA ( #14 ) ;
#184 = EDGE_LOOP ( 'NONE', ( #21 ) ) ;
#185 = DIRECTION ( 'NONE',  ( -0.000000000000000000, -1.000000000000000000, -0.000000000000000000 ) ) ;
#186 = EDGE_CURVE ( 'NONE', #50, #50, #49, .T. ) ;
#187 = FACE_OUTER_BOUND ( 'NONE', #184, .T. ) ;
#188 = AXIS2_PLACEMENT_3D ( 'NONE', #170, #185, #72 ) ;
#189 = DIRECTION ( 'NONE',  ( -2.449293598294707770E-17, 1.000000000000000000, -0.000000000000000000 ) ) ;
#190 = CARTESIAN_POINT ( 'NONE',  ( 0.000000000000000000, 12.50000000000000000, 0.000000000000000000 ) ) ;
#191 = DIRECTION ( 'NONE',  ( -1.000000000000000000, 0.000000000000000000, 0.000000000000000000 ) ) ;
#192 = FACE_OUTER_BOUND ( 'NONE', #142, .T. ) ;
#193 = DIRECTION ( 'NONE',  ( 2.449293598294707770E-17, -1.000000000000000000, 0.000000000000000000 ) ) ;
#194 = FACE_OUTER_BOUND ( 'NONE', #150, .T. ) ;
#195 = AXIS2_PLACEMENT_3D ( 'NONE', #132, #160, #133 ) ;
#196 =( LENGTH_UNIT ( ) NAMED_UNIT ( * ) SI_UNIT ( .MILLI., .METRE. ) );
#197 = APPLICATION_CONTEXT ( 'automotive_design' ) ;
#198 = EDGE_LOOP ( 'NONE', ( #166 ) ) ;
#199 = PRESENTATION_STYLE_ASSIGNMENT (( #99 ) ) ;
#200 = PRODUCT_DEFINITION_FORMATION_WITH_SPECIFIED_SOURCE ( 'ANY', '', #156, .NOT_KNOWN. ) ;
#201 = ADVANCED_FACE ( 'NONE', ( #33, #194 ), #28, .T. ) ;
#202 = DIRECTION ( 'NONE',  ( -2.449293598294707770E-17, 1.000000000000000000, -0.000000000000000000 ) ) ;
#203 = DIRECTION ( 'NONE',  ( -2.449293598294707770E-17, 1.000000000000000000, -0.000000000000000000 ) ) ;
#204 = CARTESIAN_POINT ( 'NONE',  ( -3.061616997868384127E-16, 12.49999999999999822, 0.000000000000000000 ) ) ;
#205 = AXIS2_PLACEMENT_3D ( 'NONE', #162, #79, #119 ) ;
#206 = DIRECTION ( 'NONE',  ( -1.000000000000000000, 0.000000000000000000, 0.000000000000000000 ) ) ;
#207 = CARTESIAN_POINT ( 'NONE',  ( 11.74999999999999112, 12.50000000000000000, 0.000000000000000000 ) ) ;
#208 = MECHANICAL_DESIGN_GEOMETRIC_PRESENTATION_REPRESENTATION (  '', ( #89 ), #169 ) ;
#209 = DIRECTION ( 'NONE',  ( -2.449293598294707770E-17, 1.000000000000000000, -0.000000000000000000 ) ) ;
#210 = ADVANCED_FACE ( 'NONE', ( #46, #192 ), #80, .F. ) ;
#211 = VERTEX_POINT ( 'NONE', #207 ) ;
#212 =( LENGTH_UNIT ( ) NAMED_UNIT ( * ) SI_UNIT ( .MILLI., .METRE. ) );
#213 = CIRCLE ( 'NONE', #122, 11.74999999999999112 ) ;
#214 = AXIS2_PLACEMENT_3D ( 'NONE', #43, #129, #155 ) ;
ENDSEC;
END-ISO-10303-21;
