ISO-10303-21;
HEADER;
FILE_DESCRIPTION (( 'STEP AP214' ),
    '1' );
FILE_NAME ('2089599.stp',
    '2022-11-29T08:45:17',
    ( '' ),
    ( '' ),
    'SwSTEP 2.0',
    'SolidWorks 2020',
    '' );
FILE_SCHEMA (( 'AUTOMOTIVE_DESIGN' ));
ENDSEC;

DATA;
#1 = DIRECTION ( 'NONE',  ( -0.000000000000000000, -1.000000000000000000, -0.000000000000000000 ) ) ;
#2 = AXIS2_PLACEMENT_3D ( 'NONE', #199, #40, #116 ) ;
#3 = EDGE_LOOP ( 'NONE', ( #80 ) ) ;
#4 = EDGE_LOOP ( 'NONE', ( #169 ) ) ;
#5 = VERTEX_POINT ( 'NONE', #211 ) ;
#6 = ORIENTED_EDGE ( 'NONE', *, *, #57, .T. ) ;
#7 = PRESENTATION_STYLE_ASSIGNMENT (( #117 ) ) ;
#8 = EDGE_LOOP ( 'NONE', ( #25 ) ) ;
#9 = VERTEX_POINT ( 'NONE', #120 ) ;
#10 = DIRECTION ( 'NONE',  ( 1.000000000000000000, 2.449293598294707770E-17, 0.000000000000000000 ) ) ;
#11 = ADVANCED_FACE ( 'NONE', ( #99, #144 ), #136, .F. ) ;
#12 = DIRECTION ( 'NONE',  ( -2.449293598294707770E-17, 1.000000000000000000, 0.000000000000000000 ) ) ;
#13 =( LENGTH_UNIT ( ) NAMED_UNIT ( * ) SI_UNIT ( .MILLI., .METRE. ) );
#14 =( NAMED_UNIT ( * ) SI_UNIT ( $, .STERADIAN. ) SOLID_ANGLE_UNIT ( ) );
#15 = DIRECTION ( 'NONE',  ( -1.000000000000000000, -2.449293598294707770E-17, 0.000000000000000000 ) ) ;
#16 = AXIS2_PLACEMENT_3D ( 'NONE', #69, #1, #195 ) ;
#17 = DIRECTION ( 'NONE',  ( -1.000000000000000000, 0.000000000000000000, 0.000000000000000000 ) ) ;
#18 = EDGE_CURVE ( 'NONE', #105, #105, #41, .T. ) ;
#19 = CARTESIAN_POINT ( 'NONE',  ( 4.814824860968089633E-32, 0.000000000000000000, 0.000000000000000000 ) ) ;
#20 = VERTEX_POINT ( 'NONE', #162 ) ;
#21 = DIRECTION ( 'NONE',  ( 1.000000000000000000, 4.336808689942017120E-17, 0.000000000000000000 ) ) ;
#22 = PRODUCT_DEFINITION_CONTEXT ( 'detailed design', #110, 'design' ) ;
#23 = EDGE_CURVE ( 'NONE', #20, #20, #138, .T. ) ;
#24 = CLOSED_SHELL ( 'NONE', ( #149, #75, #184, #52, #11, #150, #166, #34 ) ) ;
#25 = ORIENTED_EDGE ( 'NONE', *, *, #18, .T. ) ;
#26 = SURFACE_STYLE_FILL_AREA ( #32 ) ;
#27 = UNCERTAINTY_MEASURE_WITH_UNIT (LENGTH_MEASURE( 1.000000000000000082E-05 ), #100, 'distance_accuracy_value', 'NONE');
#28 = DIRECTION ( 'NONE',  ( 0.000000000000000000, 0.000000000000000000, 1.000000000000000000 ) ) ;
#29 = ORIENTED_EDGE ( 'NONE', *, *, #93, .T. ) ;
#30 =( NAMED_UNIT ( * ) SI_UNIT ( $, .STERADIAN. ) SOLID_ANGLE_UNIT ( ) );
#31 = DIRECTION ( 'NONE',  ( -1.000000000000000000, -2.449293598294707770E-17, 0.000000000000000000 ) ) ;
#32 = FILL_AREA_STYLE ('',( #45 ) ) ;
#33 = FACE_OUTER_BOUND ( 'NONE', #82, .T. ) ;
#34 = ADVANCED_FACE ( 'NONE', ( #210, #104 ), #132, .F. ) ;
#35 = ORIENTED_EDGE ( 'NONE', *, *, #72, .T. ) ;
#36 = CARTESIAN_POINT ( 'NONE',  ( 0.000000000000000000, 4.286263797015742018E-16, 0.000000000000000000 ) ) ;
#37 = PRESENTATION_STYLE_ASSIGNMENT (( #180 ) ) ;
#38 = CARTESIAN_POINT ( 'NONE',  ( -1.665519646840400618E-16, 6.799999999999999822, 0.000000000000000000 ) ) ;
#39 = FILL_AREA_STYLE ('',( #135 ) ) ;
#40 = DIRECTION ( 'NONE',  ( -2.449293598294707770E-17, 1.000000000000000000, -0.000000000000000000 ) ) ;
#41 = CIRCLE ( 'NONE', #167, 19.00000000000000000 ) ;
#42 = FACE_BOUND ( 'NONE', #4, .T. ) ;
#43 = MANIFOLD_SOLID_BREP ( 'M32x1.5 Gewindebohrung1', #24 ) ;
#44 = AXIS2_PLACEMENT_3D ( 'NONE', #38, #145, #122 ) ;
#45 = FILL_AREA_STYLE_COLOUR ( '', #163 ) ;
#46 = STYLED_ITEM ( 'NONE', ( #37 ), #43 ) ;
#47 = EDGE_LOOP ( 'NONE', ( #170 ) ) ;
#48 = DIRECTION ( 'NONE',  ( -2.449293598294707770E-17, 1.000000000000000000, 0.000000000000000000 ) ) ;
#49 = CARTESIAN_POINT ( 'NONE',  ( -2.081899558550500773E-16, 8.500000000000000000, 0.000000000000000000 ) ) ;
#50 = CARTESIAN_POINT ( 'NONE',  ( -25.00000000000000000, 12.50000000000000178, 0.000000000000000000 ) ) ;
#51 = FACE_BOUND ( 'NONE', #154, .T. ) ;
#52 = ADVANCED_FACE ( 'NONE', ( #102, #198 ), #213, .T. ) ;
#53 = CARTESIAN_POINT ( 'NONE',  ( -3.061616997868384127E-16, 12.49999999999999822, 0.000000000000000000 ) ) ;
#54 = FACE_OUTER_BOUND ( 'NONE', #47, .T. ) ;
#55 = CARTESIAN_POINT ( 'NONE',  ( -2.081899558550500773E-16, 8.500000000000000000, 0.000000000000000000 ) ) ;
#56 = AXIS2_PLACEMENT_3D ( 'NONE', #200, #12, #15 ) ;
#57 = EDGE_CURVE ( 'NONE', #90, #90, #86, .T. ) ;
#58 = AXIS2_PLACEMENT_3D ( 'NONE', #53, #123, #161 ) ;
#59 = EDGE_LOOP ( 'NONE', ( #70 ) ) ;
#60 = CIRCLE ( 'NONE', #114, 15.24999999999999289 ) ;
#61 = AXIS2_PLACEMENT_3D ( 'NONE', #206, #85, #17 ) ;
#62 = ORIENTED_EDGE ( 'NONE', *, *, #203, .T. ) ;
#63 = VERTEX_POINT ( 'NONE', #83 ) ;
#64 =( GEOMETRIC_REPRESENTATION_CONTEXT ( 3 ) GLOBAL_UNCERTAINTY_ASSIGNED_CONTEXT ( ( #27 ) ) GLOBAL_UNIT_ASSIGNED_CONTEXT ( ( #100, #159, #14 ) ) REPRESENTATION_CONTEXT ( 'NONE', 'WORKASPACE' ) );
#65 = EDGE_LOOP ( 'NONE', ( #186 ) ) ;
#66 = CARTESIAN_POINT ( 'NONE',  ( 0.000000000000000000, 4.286263797015742018E-16, -15.24999999999999289 ) ) ;
#67 = CYLINDRICAL_SURFACE ( 'NONE', #202, 20.00000000000000355 ) ;
#68 = AXIS2_PLACEMENT_3D ( 'NONE', #194, #95, #81 ) ;
#69 = CARTESIAN_POINT ( 'NONE',  ( 0.000000000000000000, 0.000000000000000000, 0.000000000000000000 ) ) ;
#70 = ORIENTED_EDGE ( 'NONE', *, *, #23, .F. ) ;
#71 = CYLINDRICAL_SURFACE ( 'NONE', #68, 25.00000000000000000 ) ;
#72 = EDGE_CURVE ( 'NONE', #196, #196, #182, .T. ) ;
#73 = DIRECTION ( 'NONE',  ( 2.449293598294707770E-17, -1.000000000000000000, 0.000000000000000000 ) ) ;
#74 = CARTESIAN_POINT ( 'NONE',  ( 0.000000000000000000, 12.50000000000000000, 0.000000000000000000 ) ) ;
#75 = ADVANCED_FACE ( 'NONE', ( #208, #173 ), #67, .T. ) ;
#76 =( GEOMETRIC_REPRESENTATION_CONTEXT ( 3 ) GLOBAL_UNCERTAINTY_ASSIGNED_CONTEXT ( ( #129 ) ) GLOBAL_UNIT_ASSIGNED_CONTEXT ( ( #13, #190, #97 ) ) REPRESENTATION_CONTEXT ( 'NONE', 'WORKASPACE' ) );
#77 = ORIENTED_EDGE ( 'NONE', *, *, #93, .F. ) ;
#78 =( GEOMETRIC_REPRESENTATION_CONTEXT ( 3 ) GLOBAL_UNCERTAINTY_ASSIGNED_CONTEXT ( ( #155 ) ) GLOBAL_UNIT_ASSIGNED_CONTEXT ( ( #128, #172, #30 ) ) REPRESENTATION_CONTEXT ( 'NONE', 'WORKASPACE' ) );
#79 = EDGE_CURVE ( 'NONE', #9, #9, #111, .T. ) ;
#80 = ORIENTED_EDGE ( 'NONE', *, *, #183, .T. ) ;
#81 = DIRECTION ( 'NONE',  ( -1.000000000000000000, 0.000000000000000000, 0.000000000000000000 ) ) ;
#82 = EDGE_LOOP ( 'NONE', ( #35 ) ) ;
#83 = CARTESIAN_POINT ( 'NONE',  ( -20.00000000000000355, 5.799999999999994493, 0.000000000000000000 ) ) ;
#84 = DIRECTION ( 'NONE',  ( -2.449293598294707770E-17, 1.000000000000000000, -0.000000000000000000 ) ) ;
#85 = DIRECTION ( 'NONE',  ( -2.449293598294707770E-17, 1.000000000000000000, -0.000000000000000000 ) ) ;
#86 = CIRCLE ( 'NONE', #168, 20.00000000000000355 ) ;
#87 = EDGE_LOOP ( 'NONE', ( #207 ) ) ;
#88 = FACE_BOUND ( 'NONE', #142, .T. ) ;
#89 = DIRECTION ( 'NONE',  ( -2.449293598294707770E-17, 1.000000000000000000, -0.000000000000000000 ) ) ;
#90 = VERTEX_POINT ( 'NONE', #151 ) ;
#91 = DIRECTION ( 'NONE',  ( 2.449293598294707770E-17, -1.000000000000000000, 0.000000000000000000 ) ) ;
#92 = CONICAL_SURFACE ( 'NONE', #178, 20.00000000000000355, 0.7853981633974466137 ) ;
#93 = EDGE_CURVE ( 'NONE', #63, #63, #185, .T. ) ;
#94 = APPLICATION_PROTOCOL_DEFINITION ( 'draft international standard', 'automotive_design', 1998, #152 ) ;
#95 = DIRECTION ( 'NONE',  ( -2.449293598294707770E-17, 1.000000000000000000, -0.000000000000000000 ) ) ;
#96 = SHAPE_DEFINITION_REPRESENTATION ( #193, #109 ) ;
#97 =( NAMED_UNIT ( * ) SI_UNIT ( $, .STERADIAN. ) SOLID_ANGLE_UNIT ( ) );
#98 = DIRECTION ( 'NONE',  ( 2.449293598294707770E-17, -1.000000000000000000, 0.000000000000000000 ) ) ;
#99 = FACE_OUTER_BOUND ( 'NONE', #59, .T. ) ;
#100 =( LENGTH_UNIT ( ) NAMED_UNIT ( * ) SI_UNIT ( .MILLI., .METRE. ) );
#101 = PLANE ( 'NONE',  #127 ) ;
#102 = FACE_OUTER_BOUND ( 'NONE', #192, .T. ) ;
#103 = AXIS2_PLACEMENT_3D ( 'NONE', #49, #146, #158 ) ;
#104 = FACE_OUTER_BOUND ( 'NONE', #112, .T. ) ;
#105 = VERTEX_POINT ( 'NONE', #164 ) ;
#106 = AXIS2_PLACEMENT_3D ( 'NONE', #133, #28, #174 ) ;
#107 = STYLED_ITEM ( 'NONE', ( #7 ), #109 ) ;
#108 = DIRECTION ( 'NONE',  ( 1.000000000000000000, 0.000000000000000000, 0.000000000000000000 ) ) ;
#109 = ADVANCED_BREP_SHAPE_REPRESENTATION ( '2089599', ( #43, #106 ), #78 ) ;
#110 = APPLICATION_CONTEXT ( 'automotive_design' ) ;
#111 = CIRCLE ( 'NONE', #44, 19.00000000000000355 ) ;
#112 = EDGE_LOOP ( 'NONE', ( #115 ) ) ;
#113 = SURFACE_SIDE_STYLE ('',( #26 ) ) ;
#114 = AXIS2_PLACEMENT_3D ( 'NONE', #36, #121, #176 ) ;
#115 = ORIENTED_EDGE ( 'NONE', *, *, #203, .F. ) ;
#116 = DIRECTION ( 'NONE',  ( -1.000000000000000000, -4.336808689942017120E-17, 0.000000000000000000 ) ) ;
#117 = SURFACE_STYLE_USAGE ( .BOTH. , #113 ) ;
#118 = CARTESIAN_POINT ( 'NONE',  ( 5.999039130647438642E-33, -2.449293598294708386E-16, 0.000000000000000000 ) ) ;
#119 = SURFACE_STYLE_FILL_AREA ( #39 ) ;
#120 = CARTESIAN_POINT ( 'NONE',  ( -19.00000000000000355, 6.799999999999998934, 0.000000000000000000 ) ) ;
#121 = DIRECTION ( 'NONE',  ( -0.000000000000000000, -1.000000000000000000, -0.000000000000000000 ) ) ;
#122 = DIRECTION ( 'NONE',  ( -1.000000000000000000, -4.565061778886333551E-17, 0.000000000000000000 ) ) ;
#123 = DIRECTION ( 'NONE',  ( -2.449293598294707770E-17, 1.000000000000000000, -0.000000000000000000 ) ) ;
#124 = PRODUCT_RELATED_PRODUCT_CATEGORY ( 'part', '', ( #125 ) ) ;
#125 = PRODUCT ( '2089599', '2089599', '', ( #209 ) ) ;
#126 = EDGE_LOOP ( 'NONE', ( #29 ) ) ;
#127 = AXIS2_PLACEMENT_3D ( 'NONE', #118, #48, #31 ) ;
#128 =( LENGTH_UNIT ( ) NAMED_UNIT ( * ) SI_UNIT ( .MILLI., .METRE. ) );
#129 = UNCERTAINTY_MEASURE_WITH_UNIT (LENGTH_MEASURE( 1.000000000000000082E-05 ), #13, 'distance_accuracy_value', 'NONE');
#130 = FACE_OUTER_BOUND ( 'NONE', #140, .T. ) ;
#131 = PRESENTATION_LAYER_ASSIGNMENT (  '', '', ( #107 ) ) ;
#132 = CYLINDRICAL_SURFACE ( 'NONE', #16, 15.24999999999998934 ) ;
#133 = CARTESIAN_POINT ( 'NONE',  ( 0.000000000000000000, 0.000000000000000000, 0.000000000000000000 ) ) ;
#134 = CARTESIAN_POINT ( 'NONE',  ( -3.061616997868384127E-16, 12.49999999999999822, 0.000000000000000000 ) ) ;
#135 = FILL_AREA_STYLE_COLOUR ( '', #201 ) ;
#136 = PLANE ( 'NONE',  #56 ) ;
#137 = PRODUCT_DEFINITION_FORMATION_WITH_SPECIFIED_SOURCE ( 'ANY', '', #125, .NOT_KNOWN. ) ;
#138 = CIRCLE ( 'NONE', #103, 25.00000000000000000 ) ;
#139 = CARTESIAN_POINT ( 'NONE',  ( -1.420590287010928793E-16, 5.799999999999995381, 0.000000000000000000 ) ) ;
#140 = EDGE_LOOP ( 'NONE', ( #141 ) ) ;
#141 = ORIENTED_EDGE ( 'NONE', *, *, #72, .F. ) ;
#142 = EDGE_LOOP ( 'NONE', ( #204 ) ) ;
#143 = APPLICATION_PROTOCOL_DEFINITION ( 'draft international standard', 'automotive_design', 1998, #110 ) ;
#144 = FACE_BOUND ( 'NONE', #8, .T. ) ;
#145 = DIRECTION ( 'NONE',  ( -2.449293598294707770E-17, 1.000000000000000000, -0.000000000000000000 ) ) ;
#146 = DIRECTION ( 'NONE',  ( -2.449293598294707770E-17, 1.000000000000000000, -0.000000000000000000 ) ) ;
#147 = DIRECTION ( 'NONE',  ( -1.000000000000000000, -2.449293598294708078E-17, 0.000000000000000000 ) ) ;
#148 = FACE_OUTER_BOUND ( 'NONE', #126, .T. ) ;
#149 = ADVANCED_FACE ( 'NONE', ( #88, #54 ), #101, .F. ) ;
#150 = ADVANCED_FACE ( 'NONE', ( #130, #212 ), #71, .T. ) ;
#151 = CARTESIAN_POINT ( 'NONE',  ( -20.00000000000000355, -4.898587196589416773E-16, 0.000000000000000000 ) ) ;
#152 = APPLICATION_CONTEXT ( 'automotive_design' ) ;
#153 = AXIS2_PLACEMENT_3D ( 'NONE', #191, #98, #10 ) ;
#154 = EDGE_LOOP ( 'NONE', ( #62 ) ) ;
#155 = UNCERTAINTY_MEASURE_WITH_UNIT (LENGTH_MEASURE( 1.000000000000000082E-05 ), #128, 'distance_accuracy_value', 'NONE');
#156 = VERTEX_POINT ( 'NONE', #66 ) ;
#157 = PLANE ( 'NONE',  #153 ) ;
#158 = DIRECTION ( 'NONE',  ( -1.000000000000000000, 0.000000000000000000, 0.000000000000000000 ) ) ;
#159 =( NAMED_UNIT ( * ) PLANE_ANGLE_UNIT ( ) SI_UNIT ( $, .RADIAN. ) );
#160 = DIRECTION ( 'NONE',  ( -1.000000000000000000, 0.000000000000000000, 0.000000000000000000 ) ) ;
#161 = DIRECTION ( 'NONE',  ( -1.000000000000000000, 0.000000000000000000, 0.000000000000000000 ) ) ;
#162 = CARTESIAN_POINT ( 'NONE',  ( -25.00000000000000000, 8.500000000000000000, 0.000000000000000000 ) ) ;
#163 = COLOUR_RGB ( '',0.7529411764705882248, 0.7529411764705882248, 0.7529411764705882248 ) ;
#164 = CARTESIAN_POINT ( 'NONE',  ( -19.00000000000000000, 8.500000000000000000, 0.000000000000000000 ) ) ;
#165 = CIRCLE ( 'NONE', #171, 15.24999999999998934 ) ;
#166 = ADVANCED_FACE ( 'NONE', ( #51, #33 ), #157, .F. ) ;
#167 = AXIS2_PLACEMENT_3D ( 'NONE', #55, #84, #160 ) ;
#168 = AXIS2_PLACEMENT_3D ( 'NONE', #19, #89, #147 ) ;
#169 = ORIENTED_EDGE ( 'NONE', *, *, #79, .F. ) ;
#170 = ORIENTED_EDGE ( 'NONE', *, *, #57, .F. ) ;
#171 = AXIS2_PLACEMENT_3D ( 'NONE', #74, #91, #108 ) ;
#172 =( NAMED_UNIT ( * ) PLANE_ANGLE_UNIT ( ) SI_UNIT ( $, .RADIAN. ) );
#173 = FACE_OUTER_BOUND ( 'NONE', #205, .T. ) ;
#174 = DIRECTION ( 'NONE',  ( 1.000000000000000000, 0.000000000000000000, 0.000000000000000000 ) ) ;
#175 = SURFACE_SIDE_STYLE ('',( #119 ) ) ;
#176 = DIRECTION ( 'NONE',  ( 0.000000000000000000, 0.000000000000000000, -1.000000000000000000 ) ) ;
#177 = MECHANICAL_DESIGN_GEOMETRIC_PRESENTATION_REPRESENTATION (  '', ( #107 ), #76 ) ;
#178 = AXIS2_PLACEMENT_3D ( 'NONE', #139, #73, #21 ) ;
#179 = ORIENTED_EDGE ( 'NONE', *, *, #18, .F. ) ;
#180 = SURFACE_STYLE_USAGE ( .BOTH. , #175 ) ;
#181 = MECHANICAL_DESIGN_GEOMETRIC_PRESENTATION_REPRESENTATION (  '', ( #46 ), #64 ) ;
#182 = CIRCLE ( 'NONE', #61, 25.00000000000000000 ) ;
#183 = EDGE_CURVE ( 'NONE', #156, #156, #60, .T. ) ;
#184 = ADVANCED_FACE ( 'NONE', ( #42, #148 ), #92, .T. ) ;
#185 = CIRCLE ( 'NONE', #2, 20.00000000000000355 ) ;
#186 = ORIENTED_EDGE ( 'NONE', *, *, #79, .T. ) ;
#187 = PRODUCT_DEFINITION ( 'UNKNOWN', '', #137, #22 ) ;
#188 = PRESENTATION_LAYER_ASSIGNMENT (  '', '', ( #46 ) ) ;
#189 = EDGE_LOOP ( 'NONE', ( #77 ) ) ;
#190 =( NAMED_UNIT ( * ) PLANE_ANGLE_UNIT ( ) SI_UNIT ( $, .RADIAN. ) );
#191 = CARTESIAN_POINT ( 'NONE',  ( 25.00000000000000000, 12.50000000000000000, 0.000000000000000000 ) ) ;
#192 = EDGE_LOOP ( 'NONE', ( #179 ) ) ;
#193 = PRODUCT_DEFINITION_SHAPE ( 'NONE', 'NONE',  #187 ) ;
#194 = CARTESIAN_POINT ( 'NONE',  ( -3.061616997868384127E-16, 12.49999999999999822, 0.000000000000000000 ) ) ;
#195 = DIRECTION ( 'NONE',  ( 0.000000000000000000, 0.000000000000000000, -1.000000000000000000 ) ) ;
#196 = VERTEX_POINT ( 'NONE', #50 ) ;
#197 = DIRECTION ( 'NONE',  ( -1.000000000000000000, 0.000000000000000000, 0.000000000000000000 ) ) ;
#198 = FACE_OUTER_BOUND ( 'NONE', #65, .T. ) ;
#199 = CARTESIAN_POINT ( 'NONE',  ( -1.420590287010928793E-16, 5.799999999999995381, 0.000000000000000000 ) ) ;
#200 = CARTESIAN_POINT ( 'NONE',  ( 19.00000000000000000, 8.500000000000000000, 0.000000000000000000 ) ) ;
#201 = COLOUR_RGB ( '',0.7529411764705882248, 0.7529411764705882248, 0.7529411764705882248 ) ;
#202 = AXIS2_PLACEMENT_3D ( 'NONE', #134, #214, #197 ) ;
#203 = EDGE_CURVE ( 'NONE', #5, #5, #165, .T. ) ;
#204 = ORIENTED_EDGE ( 'NONE', *, *, #183, .F. ) ;
#205 = EDGE_LOOP ( 'NONE', ( #6 ) ) ;
#206 = CARTESIAN_POINT ( 'NONE',  ( -3.061616997868384620E-16, 12.50000000000000178, 0.000000000000000000 ) ) ;
#207 = ORIENTED_EDGE ( 'NONE', *, *, #23, .T. ) ;
#208 = FACE_OUTER_BOUND ( 'NONE', #189, .T. ) ;
#209 = PRODUCT_CONTEXT ( 'NONE', #152, 'mechanical' ) ;
#210 = FACE_OUTER_BOUND ( 'NONE', #3, .T. ) ;
#211 = CARTESIAN_POINT ( 'NONE',  ( 15.24999999999998934, 12.50000000000000000, 0.000000000000000000 ) ) ;
#212 = FACE_OUTER_BOUND ( 'NONE', #87, .T. ) ;
#213 = CYLINDRICAL_SURFACE ( 'NONE', #58, 19.00000000000000355 ) ;
#214 = DIRECTION ( 'NONE',  ( -2.449293598294707770E-17, 1.000000000000000000, -0.000000000000000000 ) ) ;
ENDSEC;
END-ISO-10303-21;
