ISO-10303-21;
HEADER;
FILE_DESCRIPTION (( 'STEP AP214' ),
    '1' );
FILE_NAME ('3141494.stp',
    '2024-05-02T14:56:07',
    ( '' ),
    ( '' ),
    'SwSTEP 2.0',
    'SolidWorks 2022',
    '' );
FILE_SCHEMA (( 'AUTOMOTIVE_DESIGN' ));
ENDSEC;

DATA;
#1 = FACE_OUTER_BOUND ( 'NONE', #82, .T. ) ;
#2 =( GEOMETRIC_REPRESENTATION_CONTEXT ( 3 ) GLOBAL_UNCERTAINTY_ASSIGNED_CONTEXT ( ( #90 ) ) GLOBAL_UNIT_ASSIGNED_CONTEXT ( ( #24, #58, #77 ) ) REPRESENTATION_CONTEXT ( 'NONE', 'WORKASPACE' ) );
#3 =( NAMED_UNIT ( * ) PLANE_ANGLE_UNIT ( ) SI_UNIT ( $, .RADIAN. ) );
#4 = STYLED_ITEM ( 'NONE', ( #14 ), #47 ) ;
#5 =( NAMED_UNIT ( * ) SI_UNIT ( $, .STERADIAN. ) SOLID_ANGLE_UNIT ( ) );
#6 = AXIS2_PLACEMENT_3D ( 'NONE', #17, #49, #30 ) ;
#7 = ORIENTED_EDGE ( 'NONE', *, *, #68, .F. ) ;
#8 = MECHANICAL_DESIGN_GEOMETRIC_PRESENTATION_REPRESENTATION (  '', ( #80 ), #73 ) ;
#9 = PRESENTATION_STYLE_ASSIGNMENT (( #29 ) ) ;
#10 = UNCERTAINTY_MEASURE_WITH_UNIT (LENGTH_MEASURE( 1.000000000000000082E-05 ), #94, 'distance_accuracy_value', 'NONE');
#11 = SURFACE_SIDE_STYLE ('',( #87 ) ) ;
#12 = MECHANICAL_DESIGN_GEOMETRIC_PRESENTATION_REPRESENTATION (  '', ( #4 ), #109 ) ;
#13 = CIRCLE ( 'NONE', #6, 4.000000000000000000 ) ;
#14 = PRESENTATION_STYLE_ASSIGNMENT (( #93 ) ) ;
#15 = CYLINDRICAL_SURFACE ( 'NONE', #112, 4.000000000000000000 ) ;
#16 = CARTESIAN_POINT ( 'NONE',  ( 0.000000000000000000, 0.000000000000000000, 0.000000000000000000 ) ) ;
#17 = CARTESIAN_POINT ( 'NONE',  ( 0.000000000000000000, 0.000000000000000000, 0.000000000000000000 ) ) ;
#18 = CARTESIAN_POINT ( 'NONE',  ( 0.000000000000000000, 0.000000000000000000, 4.000000000000000000 ) ) ;
#19 = DIRECTION ( 'NONE',  ( 0.000000000000000000, 1.000000000000000000, 0.000000000000000000 ) ) ;
#20 = PRODUCT_DEFINITION ( 'UNKNOWN', '', #98, #52 ) ;
#21 = DIRECTION ( 'NONE',  ( 0.000000000000000000, 0.000000000000000000, 1.000000000000000000 ) ) ;
#22 = EDGE_LOOP ( 'NONE', ( #7 ) ) ;
#23 = DIRECTION ( 'NONE',  ( 0.000000000000000000, 0.000000000000000000, -1.000000000000000000 ) ) ;
#24 =( LENGTH_UNIT ( ) NAMED_UNIT ( * ) SI_UNIT ( .MILLI., .METRE. ) );
#25 = ADVANCED_FACE ( 'NONE', ( #48 ), #74, .T. ) ;
#26 =( NAMED_UNIT ( * ) SI_UNIT ( $, .STERADIAN. ) SOLID_ANGLE_UNIT ( ) );
#27 = FACE_OUTER_BOUND ( 'NONE', #105, .T. ) ;
#28 = SURFACE_STYLE_FILL_AREA ( #55 ) ;
#29 = SURFACE_STYLE_USAGE ( .BOTH. , #41 ) ;
#30 = DIRECTION ( 'NONE',  ( 0.000000000000000000, 0.000000000000000000, 1.000000000000000000 ) ) ;
#31 = SURFACE_STYLE_USAGE ( .BOTH. , #11 ) ;
#32 = APPLICATION_CONTEXT ( 'automotive_design' ) ;
#33 = PRESENTATION_LAYER_ASSIGNMENT (  '', '', ( #81 ) ) ;
#34 = CARTESIAN_POINT ( 'NONE',  ( 0.000000000000000000, 0.000000000000000000, 0.000000000000000000 ) ) ;
#35 = PRESENTATION_LAYER_ASSIGNMENT (  '', '', ( #4 ) ) ;
#36 = ADVANCED_BREP_SHAPE_REPRESENTATION ( '3141494', ( #106, #103 ), #102 ) ;
#37 = ADVANCED_FACE ( 'NONE', ( #96 ), #114, .F. ) ;
#38 =( NAMED_UNIT ( * ) PLANE_ANGLE_UNIT ( ) SI_UNIT ( $, .RADIAN. ) );
#39 = DIRECTION ( 'NONE',  ( -0.000000000000000000, -1.000000000000000000, -0.000000000000000000 ) ) ;
#40 = AXIS2_PLACEMENT_3D ( 'NONE', #75, #115, #72 ) ;
#41 = SURFACE_SIDE_STYLE ('',( #60 ) ) ;
#42 = DIRECTION ( 'NONE',  ( 0.000000000000000000, 0.000000000000000000, 1.000000000000000000 ) ) ;
#43 = MECHANICAL_DESIGN_GEOMETRIC_PRESENTATION_REPRESENTATION (  '', ( #81 ), #2 ) ;
#44 = FILL_AREA_STYLE_COLOUR ( '', #86 ) ;
#45 = PRODUCT_CONTEXT ( 'NONE', #111, 'mechanical' ) ;
#46 = CLOSED_SHELL ( 'NONE', ( #47, #25, #37 ) ) ;
#47 = ADVANCED_FACE ( 'NONE', ( #1, #27 ), #15, .T. ) ;
#48 = FACE_OUTER_BOUND ( 'NONE', #113, .T. ) ;
#49 = DIRECTION ( 'NONE',  ( 0.000000000000000000, 1.000000000000000000, 0.000000000000000000 ) ) ;
#50 = FILL_AREA_STYLE ('',( #101 ) ) ;
#51 = FILL_AREA_STYLE ('',( #44 ) ) ;
#52 = PRODUCT_DEFINITION_CONTEXT ( 'detailed design', #32, 'design' ) ;
#53 = EDGE_CURVE ( 'NONE', #65, #65, #69, .T. ) ;
#54 = COLOUR_RGB ( '',0.7529411764705882248, 0.7529411764705882248, 0.7529411764705882248 ) ;
#55 = FILL_AREA_STYLE ('',( #85 ) ) ;
#56 = PRODUCT_DEFINITION_SHAPE ( 'NONE', 'NONE',  #20 ) ;
#57 = CARTESIAN_POINT ( 'NONE',  ( 0.000000000000000000, 500.0000000000000000, 0.000000000000000000 ) ) ;
#58 =( NAMED_UNIT ( * ) PLANE_ANGLE_UNIT ( ) SI_UNIT ( $, .RADIAN. ) );
#59 = CARTESIAN_POINT ( 'NONE',  ( 0.000000000000000000, 500.0000000000000000, 4.000000000000000000 ) ) ;
#60 = SURFACE_STYLE_FILL_AREA ( #50 ) ;
#61 = SHAPE_DEFINITION_REPRESENTATION ( #56, #36 ) ;
#62 = ORIENTED_EDGE ( 'NONE', *, *, #68, .T. ) ;
#63 = CARTESIAN_POINT ( 'NONE',  ( 0.000000000000000000, 500.0000000000000000, 0.000000000000000000 ) ) ;
#64 = PRESENTATION_LAYER_ASSIGNMENT (  '', '', ( #80 ) ) ;
#65 = VERTEX_POINT ( 'NONE', #59 ) ;
#66 = UNCERTAINTY_MEASURE_WITH_UNIT (LENGTH_MEASURE( 1.000000000000000082E-05 ), #67, 'distance_accuracy_value', 'NONE');
#67 =( LENGTH_UNIT ( ) NAMED_UNIT ( * ) SI_UNIT ( .MILLI., .METRE. ) );
#68 = EDGE_CURVE ( 'NONE', #100, #100, #13, .T. ) ;
#69 = CIRCLE ( 'NONE', #76, 4.000000000000000000 ) ;
#70 = APPLICATION_PROTOCOL_DEFINITION ( 'draft international standard', 'automotive_design', 1998, #32 ) ;
#71 = DIRECTION ( 'NONE',  ( 1.000000000000000000, 0.000000000000000000, 0.000000000000000000 ) ) ;
#72 = DIRECTION ( 'NONE',  ( 0.000000000000000000, -0.000000000000000000, 1.000000000000000000 ) ) ;
#73 =( GEOMETRIC_REPRESENTATION_CONTEXT ( 3 ) GLOBAL_UNCERTAINTY_ASSIGNED_CONTEXT ( ( #66 ) ) GLOBAL_UNIT_ASSIGNED_CONTEXT ( ( #67, #3, #5 ) ) REPRESENTATION_CONTEXT ( 'NONE', 'WORKASPACE' ) );
#74 = PLANE ( 'NONE',  #40 ) ;
#75 = CARTESIAN_POINT ( 'NONE',  ( 0.000000000000000000, 500.0000000000000000, 0.000000000000000000 ) ) ;
#76 = AXIS2_PLACEMENT_3D ( 'NONE', #57, #19, #42 ) ;
#77 =( NAMED_UNIT ( * ) SI_UNIT ( $, .STERADIAN. ) SOLID_ANGLE_UNIT ( ) );
#78 = PRESENTATION_STYLE_ASSIGNMENT (( #31 ) ) ;
#79 = UNCERTAINTY_MEASURE_WITH_UNIT (LENGTH_MEASURE( 1.000000000000000082E-05 ), #110, 'distance_accuracy_value', 'NONE');
#80 = STYLED_ITEM ( 'NONE', ( #9 ), #106 ) ;
#81 = STYLED_ITEM ( 'NONE', ( #78 ), #36 ) ;
#82 = EDGE_LOOP ( 'NONE', ( #84 ) ) ;
#83 = ORIENTED_EDGE ( 'NONE', *, *, #53, .T. ) ;
#84 = ORIENTED_EDGE ( 'NONE', *, *, #53, .F. ) ;
#85 = FILL_AREA_STYLE_COLOUR ( '', #107 ) ;
#86 = COLOUR_RGB ( '',0.7529411764705882248, 0.7529411764705882248, 0.7529411764705882248 ) ;
#87 = SURFACE_STYLE_FILL_AREA ( #51 ) ;
#88 =( NAMED_UNIT ( * ) PLANE_ANGLE_UNIT ( ) SI_UNIT ( $, .RADIAN. ) );
#89 = AXIS2_PLACEMENT_3D ( 'NONE', #16, #95, #104 ) ;
#90 = UNCERTAINTY_MEASURE_WITH_UNIT (LENGTH_MEASURE( 1.000000000000000082E-05 ), #24, 'distance_accuracy_value', 'NONE');
#91 = APPLICATION_PROTOCOL_DEFINITION ( 'draft international standard', 'automotive_design', 1998, #111 ) ;
#92 = PRODUCT ( '3141494', '3141494', '', ( #45 ) ) ;
#93 = SURFACE_STYLE_USAGE ( .BOTH. , #108 ) ;
#94 =( LENGTH_UNIT ( ) NAMED_UNIT ( * ) SI_UNIT ( .MILLI., .METRE. ) );
#95 = DIRECTION ( 'NONE',  ( 0.000000000000000000, 1.000000000000000000, 0.000000000000000000 ) ) ;
#96 = FACE_OUTER_BOUND ( 'NONE', #22, .T. ) ;
#97 = PRODUCT_RELATED_PRODUCT_CATEGORY ( 'part', '', ( #92 ) ) ;
#98 = PRODUCT_DEFINITION_FORMATION_WITH_SPECIFIED_SOURCE ( 'ANY', '', #92, .NOT_KNOWN. ) ;
#99 =( NAMED_UNIT ( * ) SI_UNIT ( $, .STERADIAN. ) SOLID_ANGLE_UNIT ( ) );
#100 = VERTEX_POINT ( 'NONE', #18 ) ;
#101 = FILL_AREA_STYLE_COLOUR ( '', #54 ) ;
#102 =( GEOMETRIC_REPRESENTATION_CONTEXT ( 3 ) GLOBAL_UNCERTAINTY_ASSIGNED_CONTEXT ( ( #79 ) ) GLOBAL_UNIT_ASSIGNED_CONTEXT ( ( #110, #88, #99 ) ) REPRESENTATION_CONTEXT ( 'NONE', 'WORKASPACE' ) );
#103 = AXIS2_PLACEMENT_3D ( 'NONE', #34, #21, #71 ) ;
#104 = DIRECTION ( 'NONE',  ( 0.000000000000000000, -0.000000000000000000, 1.000000000000000000 ) ) ;
#105 = EDGE_LOOP ( 'NONE', ( #62 ) ) ;
#106 = MANIFOLD_SOLID_BREP ( 'Aufsatz-Linear austragen1', #46 ) ;
#107 = COLOUR_RGB ( '',0.7529411764705882248, 0.7529411764705882248, 0.7529411764705882248 ) ;
#108 = SURFACE_SIDE_STYLE ('',( #28 ) ) ;
#109 =( GEOMETRIC_REPRESENTATION_CONTEXT ( 3 ) GLOBAL_UNCERTAINTY_ASSIGNED_CONTEXT ( ( #10 ) ) GLOBAL_UNIT_ASSIGNED_CONTEXT ( ( #94, #38, #26 ) ) REPRESENTATION_CONTEXT ( 'NONE', 'WORKASPACE' ) );
#110 =( LENGTH_UNIT ( ) NAMED_UNIT ( * ) SI_UNIT ( .MILLI., .METRE. ) );
#111 = APPLICATION_CONTEXT ( 'automotive_design' ) ;
#112 = AXIS2_PLACEMENT_3D ( 'NONE', #63, #39, #23 ) ;
#113 = EDGE_LOOP ( 'NONE', ( #83 ) ) ;
#114 = PLANE ( 'NONE',  #89 ) ;
#115 = DIRECTION ( 'NONE',  ( 0.000000000000000000, 1.000000000000000000, 0.000000000000000000 ) ) ;
ENDSEC;
END-ISO-10303-21;
