ISO-10303-21;
HEADER;
FILE_DESCRIPTION (( 'STEP AP214' ),
    '1' );
FILE_NAME ('3402306.stp',
    '2024-05-02T15:15:41',
    ( '' ),
    ( '' ),
    'SwSTEP 2.0',
    'SolidWorks 2022',
    '' );
FILE_SCHEMA (( 'AUTOMOTIVE_DESIGN' ));
ENDSEC;

DATA;
#1 = ORIENTED_EDGE ( 'NONE', *, *, #105, .T. ) ;
#2 = DIRECTION ( 'NONE',  ( 0.000000000000000000, 0.000000000000000000, 1.000000000000000000 ) ) ;
#3 = CARTESIAN_POINT ( 'NONE',  ( -1.599999999999998535, 6.000000000000000000, 0.000000000000000000 ) ) ;
#4 =( LENGTH_UNIT ( ) NAMED_UNIT ( * ) SI_UNIT ( .MILLI., .METRE. ) );
#5 = PRODUCT_CONTEXT ( 'NONE', #42, 'mechanical' ) ;
#6 = DIRECTION ( 'NONE',  ( 1.000000000000000000, 0.000000000000000000, 0.000000000000000000 ) ) ;
#7 = FACE_OUTER_BOUND ( 'NONE', #11, .T. ) ;
#8 =( GEOMETRIC_REPRESENTATION_CONTEXT ( 3 ) GLOBAL_UNCERTAINTY_ASSIGNED_CONTEXT ( ( #43 ) ) GLOBAL_UNIT_ASSIGNED_CONTEXT ( ( #4, #70, #89 ) ) REPRESENTATION_CONTEXT ( 'NONE', 'WORKASPACE' ) );
#9 = CYLINDRICAL_SURFACE ( 'NONE', #87, 3.200000000000000178 ) ;
#10 = VERTEX_POINT ( 'NONE', #130 ) ;
#11 = EDGE_LOOP ( 'NONE', ( #99 ) ) ;
#12 = SURFACE_STYLE_USAGE ( .BOTH. , #22 ) ;
#13 = PLANE ( 'NONE',  #52 ) ;
#14 = AXIS2_PLACEMENT_3D ( 'NONE', #132, #119, #47 ) ;
#15 = COLOUR_RGB ( '',0.7764705882352941346, 0.7568627450980391913, 0.7372549019607843590 ) ;
#16 = EDGE_CURVE ( 'NONE', #74, #74, #126, .T. ) ;
#17 = PRODUCT_DEFINITION ( 'UNKNOWN', '', #18, #124 ) ;
#18 = PRODUCT_DEFINITION_FORMATION_WITH_SPECIFIED_SOURCE ( 'ANY', '', #41, .NOT_KNOWN. ) ;
#19 = APPLICATION_CONTEXT ( 'automotive_design' ) ;
#20 = CARTESIAN_POINT ( 'NONE',  ( -1.599999999999997202, 0.000000000000000000, 0.000000000000000000 ) ) ;
#21 = ORIENTED_EDGE ( 'NONE', *, *, #54, .F. ) ;
#22 = SURFACE_SIDE_STYLE ('',( #118 ) ) ;
#23 = EDGE_LOOP ( 'NONE', ( #21 ) ) ;
#24 = FILL_AREA_STYLE ('',( #112 ) ) ;
#25 = FACE_BOUND ( 'NONE', #23, .T. ) ;
#26 = VERTEX_POINT ( 'NONE', #36 ) ;
#27 = PRESENTATION_STYLE_ASSIGNMENT (( #84 ) ) ;
#28 =( LENGTH_UNIT ( ) NAMED_UNIT ( * ) SI_UNIT ( .MILLI., .METRE. ) );
#29 = PRODUCT_RELATED_PRODUCT_CATEGORY ( 'part', '', ( #41 ) ) ;
#30 = AXIS2_PLACEMENT_3D ( 'NONE', #108, #106, #81 ) ;
#31 = ADVANCED_FACE ( 'NONE', ( #25, #82 ), #59, .F. ) ;
#32 = CIRCLE ( 'NONE', #73, 6.000000000000000000 ) ;
#33 = EDGE_LOOP ( 'NONE', ( #78 ) ) ;
#34 = ORIENTED_EDGE ( 'NONE', *, *, #16, .F. ) ;
#35 = EDGE_LOOP ( 'NONE', ( #57 ) ) ;
#36 = CARTESIAN_POINT ( 'NONE',  ( 0.000000000000000000, 0.000000000000000000, 3.200000000000000178 ) ) ;
#37 = DIRECTION ( 'NONE',  ( 0.000000000000000000, 0.000000000000000000, 1.000000000000000000 ) ) ;
#38 =( NAMED_UNIT ( * ) SI_UNIT ( $, .STERADIAN. ) SOLID_ANGLE_UNIT ( ) );
#39 =( NAMED_UNIT ( * ) PLANE_ANGLE_UNIT ( ) SI_UNIT ( $, .RADIAN. ) );
#40 = ADVANCED_FACE ( 'NONE', ( #131, #91 ), #9, .F. ) ;
#41 = PRODUCT ( '3402306', '3402306', '', ( #5 ) ) ;
#42 = APPLICATION_CONTEXT ( 'automotive_design' ) ;
#43 = UNCERTAINTY_MEASURE_WITH_UNIT (LENGTH_MEASURE( 1.000000000000000082E-05 ), #4, 'distance_accuracy_value', 'NONE');
#44 = ORIENTED_EDGE ( 'NONE', *, *, #54, .T. ) ;
#45 = ADVANCED_FACE ( 'NONE', ( #80, #90 ), #69, .T. ) ;
#46 = DIRECTION ( 'NONE',  ( 1.000000000000000000, 0.000000000000000000, 0.000000000000000000 ) ) ;
#47 = DIRECTION ( 'NONE',  ( 0.000000000000000000, 0.000000000000000000, 1.000000000000000000 ) ) ;
#48 = ORIENTED_EDGE ( 'NONE', *, *, #16, .T. ) ;
#49 = DIRECTION ( 'NONE',  ( -1.000000000000000000, -0.000000000000000000, -0.000000000000000000 ) ) ;
#50 = DIRECTION ( 'NONE',  ( -1.000000000000000000, -0.000000000000000000, -0.000000000000000000 ) ) ;
#51 = FILL_AREA_STYLE ('',( #68 ) ) ;
#52 = AXIS2_PLACEMENT_3D ( 'NONE', #122, #61, #62 ) ;
#53 = CLOSED_SHELL ( 'NONE', ( #40, #123, #45, #31 ) ) ;
#54 = EDGE_CURVE ( 'NONE', #10, #10, #102, .T. ) ;
#55 = CARTESIAN_POINT ( 'NONE',  ( 0.000000000000000000, 0.000000000000000000, 0.000000000000000000 ) ) ;
#56 =( GEOMETRIC_REPRESENTATION_CONTEXT ( 3 ) GLOBAL_UNCERTAINTY_ASSIGNED_CONTEXT ( ( #113 ) ) GLOBAL_UNIT_ASSIGNED_CONTEXT ( ( #107, #58, #127 ) ) REPRESENTATION_CONTEXT ( 'NONE', 'WORKASPACE' ) );
#57 = ORIENTED_EDGE ( 'NONE', *, *, #79, .T. ) ;
#58 =( NAMED_UNIT ( * ) PLANE_ANGLE_UNIT ( ) SI_UNIT ( $, .RADIAN. ) );
#59 = PLANE ( 'NONE',  #72 ) ;
#60 = APPLICATION_PROTOCOL_DEFINITION ( 'draft international standard', 'automotive_design', 1998, #42 ) ;
#61 = DIRECTION ( 'NONE',  ( -1.000000000000000000, 0.000000000000000000, -0.000000000000000000 ) ) ;
#62 = DIRECTION ( 'NONE',  ( -0.000000000000000000, 0.000000000000000000, 1.000000000000000000 ) ) ;
#63 = CIRCLE ( 'NONE', #14, 3.200000000000000178 ) ;
#64 = PRODUCT_DEFINITION_SHAPE ( 'NONE', 'NONE',  #17 ) ;
#65 = DIRECTION ( 'NONE',  ( 0.000000000000000000, 0.000000000000000000, -1.000000000000000000 ) ) ;
#66 = PRESENTATION_STYLE_ASSIGNMENT (( #12 ) ) ;
#67 = AXIS2_PLACEMENT_3D ( 'NONE', #20, #49, #97 ) ;
#68 = FILL_AREA_STYLE_COLOUR ( '', #75 ) ;
#69 = CYLINDRICAL_SURFACE ( 'NONE', #30, 6.000000000000000000 ) ;
#70 =( NAMED_UNIT ( * ) PLANE_ANGLE_UNIT ( ) SI_UNIT ( $, .RADIAN. ) );
#71 = CARTESIAN_POINT ( 'NONE',  ( -1.599999999999997202, 0.000000000000000000, 0.000000000000000000 ) ) ;
#72 = AXIS2_PLACEMENT_3D ( 'NONE', #3, #6, #65 ) ;
#73 = AXIS2_PLACEMENT_3D ( 'NONE', #55, #133, #114 ) ;
#74 = VERTEX_POINT ( 'NONE', #100 ) ;
#75 = COLOUR_RGB ( '',0.7764705882352941346, 0.7568627450980391913, 0.7372549019607843590 ) ;
#76 = MECHANICAL_DESIGN_GEOMETRIC_PRESENTATION_REPRESENTATION (  '', ( #85 ), #56 ) ;
#77 = EDGE_LOOP ( 'NONE', ( #1 ) ) ;
#78 = ORIENTED_EDGE ( 'NONE', *, *, #79, .F. ) ;
#79 = EDGE_CURVE ( 'NONE', #26, #26, #63, .T. ) ;
#80 = FACE_OUTER_BOUND ( 'NONE', #128, .T. ) ;
#81 = DIRECTION ( 'NONE',  ( 0.000000000000000000, 0.000000000000000000, 1.000000000000000000 ) ) ;
#82 = FACE_OUTER_BOUND ( 'NONE', #88, .T. ) ;
#83 = CARTESIAN_POINT ( 'NONE',  ( 0.000000000000000000, 0.000000000000000000, 6.000000000000000000 ) ) ;
#84 = SURFACE_STYLE_USAGE ( .BOTH. , #95 ) ;
#85 = STYLED_ITEM ( 'NONE', ( #66 ), #101 ) ;
#86 = UNCERTAINTY_MEASURE_WITH_UNIT (LENGTH_MEASURE( 1.000000000000000082E-05 ), #28, 'distance_accuracy_value', 'NONE');
#87 = AXIS2_PLACEMENT_3D ( 'NONE', #129, #110, #37 ) ;
#88 = EDGE_LOOP ( 'NONE', ( #48 ) ) ;
#89 =( NAMED_UNIT ( * ) SI_UNIT ( $, .STERADIAN. ) SOLID_ANGLE_UNIT ( ) );
#90 = FACE_OUTER_BOUND ( 'NONE', #77, .T. ) ;
#91 = FACE_OUTER_BOUND ( 'NONE', #116, .T. ) ;
#92 = PRESENTATION_LAYER_ASSIGNMENT (  '', '', ( #103 ) ) ;
#93 = CARTESIAN_POINT ( 'NONE',  ( 0.000000000000000000, 0.000000000000000000, 0.000000000000000000 ) ) ;
#94 = DIRECTION ( 'NONE',  ( 0.000000000000000000, 0.000000000000000000, 1.000000000000000000 ) ) ;
#95 = SURFACE_SIDE_STYLE ('',( #134 ) ) ;
#96 = MANIFOLD_SOLID_BREP ( 'Base-Revolve', #53 ) ;
#97 = DIRECTION ( 'NONE',  ( 0.000000000000000000, 0.000000000000000000, 1.000000000000000000 ) ) ;
#98 = SHAPE_DEFINITION_REPRESENTATION ( #64, #101 ) ;
#99 = ORIENTED_EDGE ( 'NONE', *, *, #105, .F. ) ;
#100 = CARTESIAN_POINT ( 'NONE',  ( -1.599999999999997202, 0.000000000000000000, 6.000000000000000000 ) ) ;
#101 = ADVANCED_BREP_SHAPE_REPRESENTATION ( '3402306', ( #96, #121 ), #8 ) ;
#102 = CIRCLE ( 'NONE', #117, 3.200000000000000178 ) ;
#103 = STYLED_ITEM ( 'NONE', ( #27 ), #96 ) ;
#104 = MECHANICAL_DESIGN_GEOMETRIC_PRESENTATION_REPRESENTATION (  '', ( #103 ), #115 ) ;
#105 = EDGE_CURVE ( 'NONE', #120, #120, #32, .T. ) ;
#106 = DIRECTION ( 'NONE',  ( -1.000000000000000000, -0.000000000000000000, -0.000000000000000000 ) ) ;
#107 =( LENGTH_UNIT ( ) NAMED_UNIT ( * ) SI_UNIT ( .MILLI., .METRE. ) );
#108 = CARTESIAN_POINT ( 'NONE',  ( -34.92499999999994742, 0.000000000000000000, 0.000000000000000000 ) ) ;
#109 = APPLICATION_PROTOCOL_DEFINITION ( 'draft international standard', 'automotive_design', 1998, #19 ) ;
#110 = DIRECTION ( 'NONE',  ( -1.000000000000000000, -0.000000000000000000, -0.000000000000000000 ) ) ;
#111 = FACE_BOUND ( 'NONE', #35, .T. ) ;
#112 = FILL_AREA_STYLE_COLOUR ( '', #15 ) ;
#113 = UNCERTAINTY_MEASURE_WITH_UNIT (LENGTH_MEASURE( 1.000000000000000082E-05 ), #107, 'distance_accuracy_value', 'NONE');
#114 = DIRECTION ( 'NONE',  ( 0.000000000000000000, 0.000000000000000000, 1.000000000000000000 ) ) ;
#115 =( GEOMETRIC_REPRESENTATION_CONTEXT ( 3 ) GLOBAL_UNCERTAINTY_ASSIGNED_CONTEXT ( ( #86 ) ) GLOBAL_UNIT_ASSIGNED_CONTEXT ( ( #28, #39, #38 ) ) REPRESENTATION_CONTEXT ( 'NONE', 'WORKASPACE' ) );
#116 = EDGE_LOOP ( 'NONE', ( #44 ) ) ;
#117 = AXIS2_PLACEMENT_3D ( 'NONE', #71, #50, #94 ) ;
#118 = SURFACE_STYLE_FILL_AREA ( #24 ) ;
#119 = DIRECTION ( 'NONE',  ( -1.000000000000000000, -0.000000000000000000, -0.000000000000000000 ) ) ;
#120 = VERTEX_POINT ( 'NONE', #83 ) ;
#121 = AXIS2_PLACEMENT_3D ( 'NONE', #93, #2, #46 ) ;
#122 = CARTESIAN_POINT ( 'NONE',  ( 0.000000000000000000, 3.200000000000000178, 0.000000000000000000 ) ) ;
#123 = ADVANCED_FACE ( 'NONE', ( #7, #111 ), #13, .F. ) ;
#124 = PRODUCT_DEFINITION_CONTEXT ( 'detailed design', #19, 'design' ) ;
#125 = PRESENTATION_LAYER_ASSIGNMENT (  '', '', ( #85 ) ) ;
#126 = CIRCLE ( 'NONE', #67, 6.000000000000000000 ) ;
#127 =( NAMED_UNIT ( * ) SI_UNIT ( $, .STERADIAN. ) SOLID_ANGLE_UNIT ( ) );
#128 = EDGE_LOOP ( 'NONE', ( #34 ) ) ;
#129 = CARTESIAN_POINT ( 'NONE',  ( -34.92499999999994742, 0.000000000000000000, 0.000000000000000000 ) ) ;
#130 = CARTESIAN_POINT ( 'NONE',  ( -1.599999999999997202, 0.000000000000000000, 3.200000000000000178 ) ) ;
#131 = FACE_OUTER_BOUND ( 'NONE', #33, .T. ) ;
#132 = CARTESIAN_POINT ( 'NONE',  ( 0.000000000000000000, 0.000000000000000000, 0.000000000000000000 ) ) ;
#133 = DIRECTION ( 'NONE',  ( -1.000000000000000000, -0.000000000000000000, -0.000000000000000000 ) ) ;
#134 = SURFACE_STYLE_FILL_AREA ( #51 ) ;
ENDSEC;
END-ISO-10303-21;
