ISO-10303-21;
HEADER;
/* Generated by software containing ST-Developer
 * from STEP Tools, Inc. (www.steptools.com) 
 */
/* OPTION: using custom schema-name function */

FILE_DESCRIPTION(
/* description */ (''),
/* implementation_level */ '2;1');

FILE_NAME(
/* name */ '3402339',
/* time_stamp */ '2015-02-06T09:39:37+01:00',
/* author */ (''),
/* organization */ (''),
/* preprocessor_version */ 'ST-DEVELOPER v15',
/* originating_system */ '',
/* authorisation */ '');

FILE_SCHEMA (('CONFIG_CONTROL_DESIGN'));
ENDSEC;

DATA;
#10=SHAPE_REPRESENTATION_RELATIONSHIP('','',#184,#12);
#11=MANIFOLD_SOLID_BREP('Base-Revolve',#13);
#12=ADVANCED_BREP_SHAPE_REPRESENTATION('brep_rep_0',(#11,#188),#183);
#13=CLOSED_SHELL('',(#16,#17,#18,#19,#20,#21));
#14=FACE_BOUND('',#32,.T.);
#15=FACE_BOUND('',#35,.T.);
#16=ADVANCED_FACE('',(#22),#94,.T.);
#17=ADVANCED_FACE('',(#23),#95,.T.);
#18=ADVANCED_FACE('',(#24),#96,.T.);
#19=ADVANCED_FACE('',(#25,#14),#92,.T.);
#20=ADVANCED_FACE('',(#26),#97,.T.);
#21=ADVANCED_FACE('',(#27,#15),#93,.T.);
#22=FACE_OUTER_BOUND('',#28,.T.);
#23=FACE_OUTER_BOUND('',#29,.T.);
#24=FACE_OUTER_BOUND('',#30,.T.);
#25=FACE_OUTER_BOUND('',#31,.T.);
#26=FACE_OUTER_BOUND('',#33,.T.);
#27=FACE_OUTER_BOUND('',#34,.T.);
#28=EDGE_LOOP('',(#36,#37,#38,#39));
#29=EDGE_LOOP('',(#40,#41,#42,#43));
#30=EDGE_LOOP('',(#44,#45,#46,#47));
#31=EDGE_LOOP('',(#48,#49));
#32=EDGE_LOOP('',(#50,#51));
#33=EDGE_LOOP('',(#52,#53,#54,#55));
#34=EDGE_LOOP('',(#56,#57));
#35=EDGE_LOOP('',(#58,#59));
#36=ORIENTED_EDGE('',*,*,#60,.T.);
#37=ORIENTED_EDGE('',*,*,#61,.T.);
#38=ORIENTED_EDGE('',*,*,#62,.T.);
#39=ORIENTED_EDGE('',*,*,#63,.T.);
#40=ORIENTED_EDGE('',*,*,#65,.F.);
#41=ORIENTED_EDGE('',*,*,#66,.F.);
#42=ORIENTED_EDGE('',*,*,#67,.F.);
#43=ORIENTED_EDGE('',*,*,#64,.F.);
#44=ORIENTED_EDGE('',*,*,#68,.F.);
#45=ORIENTED_EDGE('',*,*,#67,.T.);
#46=ORIENTED_EDGE('',*,*,#69,.F.);
#47=ORIENTED_EDGE('',*,*,#65,.T.);
#48=ORIENTED_EDGE('',*,*,#70,.F.);
#49=ORIENTED_EDGE('',*,*,#60,.F.);
#50=ORIENTED_EDGE('',*,*,#68,.T.);
#51=ORIENTED_EDGE('',*,*,#64,.T.);
#52=ORIENTED_EDGE('',*,*,#61,.F.);
#53=ORIENTED_EDGE('',*,*,#70,.T.);
#54=ORIENTED_EDGE('',*,*,#63,.F.);
#55=ORIENTED_EDGE('',*,*,#71,.T.);
#56=ORIENTED_EDGE('',*,*,#62,.F.);
#57=ORIENTED_EDGE('',*,*,#71,.F.);
#58=ORIENTED_EDGE('',*,*,#66,.T.);
#59=ORIENTED_EDGE('',*,*,#69,.T.);
#60=EDGE_CURVE('',#84,#85,#76,.T.);
#61=EDGE_CURVE('',#85,#86,#72,.T.);
#62=EDGE_CURVE('',#86,#87,#77,.T.);
#63=EDGE_CURVE('',#87,#84,#73,.T.);
#64=EDGE_CURVE('',#88,#89,#78,.T.);
#65=EDGE_CURVE('',#90,#88,#74,.T.);
#66=EDGE_CURVE('',#91,#90,#79,.T.);
#67=EDGE_CURVE('',#89,#91,#75,.T.);
#68=EDGE_CURVE('',#89,#88,#80,.T.);
#69=EDGE_CURVE('',#90,#91,#81,.T.);
#70=EDGE_CURVE('',#85,#84,#82,.T.);
#71=EDGE_CURVE('',#87,#86,#83,.T.);
#72=B_SPLINE_CURVE_WITH_KNOTS('',1,(#283,#284),.UNSPECIFIED.,.F.,.F.,(2,
2),(0.,2.5),.UNSPECIFIED.);
#73=B_SPLINE_CURVE_WITH_KNOTS('',1,(#290,#291),.UNSPECIFIED.,.F.,.F.,(2,
2),(-2.5,0.),.UNSPECIFIED.);
#74=B_SPLINE_CURVE_WITH_KNOTS('',1,(#297,#298),.UNSPECIFIED.,.F.,.F.,(2,
2),(-2.5,0.),.UNSPECIFIED.);
#75=B_SPLINE_CURVE_WITH_KNOTS('',1,(#304,#305),.UNSPECIFIED.,.F.,.F.,(2,
2),(0.,2.5),.UNSPECIFIED.);
#76=(
BOUNDED_CURVE()
B_SPLINE_CURVE(2,(#278,#279,#280,#281,#282),.UNSPECIFIED.,.F.,.F.)
B_SPLINE_CURVE_WITH_KNOTS((3,2,3),(0.,18.8495559215388,37.6991118430775),
 .UNSPECIFIED.)
CURVE()
GEOMETRIC_REPRESENTATION_ITEM()
RATIONAL_B_SPLINE_CURVE((1.,0.707106781186548,1.,0.707106781186548,1.))
REPRESENTATION_ITEM('')
);
#77=(
BOUNDED_CURVE()
B_SPLINE_CURVE(2,(#285,#286,#287,#288,#289),.UNSPECIFIED.,.F.,.F.)
B_SPLINE_CURVE_WITH_KNOTS((3,2,3),(-37.6991118430775,-18.8495559215388,
0.),.UNSPECIFIED.)
CURVE()
GEOMETRIC_REPRESENTATION_ITEM()
RATIONAL_B_SPLINE_CURVE((1.,0.707106781186548,1.,0.707106781186548,1.))
REPRESENTATION_ITEM('')
);
#78=(
BOUNDED_CURVE()
B_SPLINE_CURVE(2,(#292,#293,#294,#295,#296),.UNSPECIFIED.,.F.,.F.)
B_SPLINE_CURVE_WITH_KNOTS((3,2,3),(0.,10.2101761241668,20.4203522483337),
 .UNSPECIFIED.)
CURVE()
GEOMETRIC_REPRESENTATION_ITEM()
RATIONAL_B_SPLINE_CURVE((1.,0.707106781186548,1.,0.707106781186548,1.))
REPRESENTATION_ITEM('')
);
#79=(
BOUNDED_CURVE()
B_SPLINE_CURVE(2,(#299,#300,#301,#302,#303),.UNSPECIFIED.,.F.,.F.)
B_SPLINE_CURVE_WITH_KNOTS((3,2,3),(-20.4203522483337,-10.2101761241668,
0.),.UNSPECIFIED.)
CURVE()
GEOMETRIC_REPRESENTATION_ITEM()
RATIONAL_B_SPLINE_CURVE((1.,0.707106781186548,1.,0.707106781186548,1.))
REPRESENTATION_ITEM('')
);
#80=(
BOUNDED_CURVE()
B_SPLINE_CURVE(2,(#306,#307,#308,#309,#310),.UNSPECIFIED.,.F.,.F.)
B_SPLINE_CURVE_WITH_KNOTS((3,2,3),(0.,10.2101761241668,20.4203522483337),
 .UNSPECIFIED.)
CURVE()
GEOMETRIC_REPRESENTATION_ITEM()
RATIONAL_B_SPLINE_CURVE((1.,0.707106781186548,1.,0.707106781186548,1.))
REPRESENTATION_ITEM('')
);
#81=(
BOUNDED_CURVE()
B_SPLINE_CURVE(2,(#311,#312,#313,#314,#315),.UNSPECIFIED.,.F.,.F.)
B_SPLINE_CURVE_WITH_KNOTS((3,2,3),(-20.4203522483337,-10.2101761241668,
0.),.UNSPECIFIED.)
CURVE()
GEOMETRIC_REPRESENTATION_ITEM()
RATIONAL_B_SPLINE_CURVE((1.,0.707106781186548,1.,0.707106781186548,1.))
REPRESENTATION_ITEM('')
);
#82=(
BOUNDED_CURVE()
B_SPLINE_CURVE(2,(#316,#317,#318,#319,#320),.UNSPECIFIED.,.F.,.F.)
B_SPLINE_CURVE_WITH_KNOTS((3,2,3),(0.,18.8495559215388,37.6991118430775),
 .UNSPECIFIED.)
CURVE()
GEOMETRIC_REPRESENTATION_ITEM()
RATIONAL_B_SPLINE_CURVE((1.,0.707106781186548,1.,0.707106781186548,1.))
REPRESENTATION_ITEM('')
);
#83=(
BOUNDED_CURVE()
B_SPLINE_CURVE(2,(#321,#322,#323,#324,#325),.UNSPECIFIED.,.F.,.F.)
B_SPLINE_CURVE_WITH_KNOTS((3,2,3),(-37.6991118430775,-18.8495559215388,
0.),.UNSPECIFIED.)
CURVE()
GEOMETRIC_REPRESENTATION_ITEM()
RATIONAL_B_SPLINE_CURVE((1.,0.707106781186548,1.,0.707106781186548,1.))
REPRESENTATION_ITEM('')
);
#84=VERTEX_POINT('',#270);
#85=VERTEX_POINT('',#271);
#86=VERTEX_POINT('',#272);
#87=VERTEX_POINT('',#273);
#88=VERTEX_POINT('',#274);
#89=VERTEX_POINT('',#275);
#90=VERTEX_POINT('',#276);
#91=VERTEX_POINT('',#277);
#92=PLANE('',#186);
#93=PLANE('',#187);
#94=(
BOUNDED_SURFACE()
B_SPLINE_SURFACE(2,1,((#196,#197),(#198,#199),(#200,#201),(#202,#203),(#204,
#205),(#206,#207),(#208,#209),(#210,#211),(#212,#213)),.UNSPECIFIED.,.T.,
 .F.,.F.)
B_SPLINE_SURFACE_WITH_KNOTS((3,2,2,2,3),(2,2),(0.,1.5707963267949,3.14159265358979,
4.71238898038469,6.28318530717959),(0.,3.0024),.UNSPECIFIED.)
GEOMETRIC_REPRESENTATION_ITEM()
RATIONAL_B_SPLINE_SURFACE(((1.,1.),(0.707106781186548,0.707106781186548),
(1.,1.),(0.707106781186548,0.707106781186548),(1.,1.),(0.707106781186548,
0.707106781186548),(1.,1.),(0.707106781186548,0.707106781186548),(1.,1.)))
REPRESENTATION_ITEM('')
SURFACE()
);
#95=(
BOUNDED_SURFACE()
B_SPLINE_SURFACE(1,2,((#214,#215,#216,#217,#218,#219,#220,#221,#222),(#223,
#224,#225,#226,#227,#228,#229,#230,#231)),.UNSPECIFIED.,.F.,.F.,.F.)
B_SPLINE_SURFACE_WITH_KNOTS((2,2),(3,2,2,2,3),(0.,3.0024),(0.,1.5707963267949,
3.14159265358979,4.71238898038469,6.28318530717959),.UNSPECIFIED.)
GEOMETRIC_REPRESENTATION_ITEM()
RATIONAL_B_SPLINE_SURFACE(((1.,0.707106781186548,1.,0.707106781186548,1.,
0.707106781186548,1.,0.707106781186548,1.),(1.,0.707106781186548,1.,0.707106781186548,
1.,0.707106781186548,1.,0.707106781186548,1.)))
REPRESENTATION_ITEM('')
SURFACE()
);
#96=(
BOUNDED_SURFACE()
B_SPLINE_SURFACE(1,2,((#232,#233,#234,#235,#236,#237,#238,#239,#240),(#241,
#242,#243,#244,#245,#246,#247,#248,#249)),.UNSPECIFIED.,.F.,.F.,.F.)
B_SPLINE_SURFACE_WITH_KNOTS((2,2),(3,2,2,2,3),(0.,3.0024),(0.,1.5707963267949,
3.14159265358979,4.71238898038469,6.28318530717959),.UNSPECIFIED.)
GEOMETRIC_REPRESENTATION_ITEM()
RATIONAL_B_SPLINE_SURFACE(((1.,0.707106781186548,1.,0.707106781186548,1.,
0.707106781186548,1.,0.707106781186548,1.),(1.,0.707106781186548,1.,0.707106781186548,
1.,0.707106781186548,1.,0.707106781186548,1.)))
REPRESENTATION_ITEM('')
SURFACE()
);
#97=(
BOUNDED_SURFACE()
B_SPLINE_SURFACE(2,1,((#251,#252),(#253,#254),(#255,#256),(#257,#258),(#259,
#260),(#261,#262),(#263,#264),(#265,#266),(#267,#268)),.UNSPECIFIED.,.T.,
 .F.,.F.)
B_SPLINE_SURFACE_WITH_KNOTS((3,2,2,2,3),(2,2),(0.,1.5707963267949,3.14159265358979,
4.71238898038469,6.28318530717959),(0.,3.0024),.UNSPECIFIED.)
GEOMETRIC_REPRESENTATION_ITEM()
RATIONAL_B_SPLINE_SURFACE(((1.,1.),(0.707106781186548,0.707106781186548),
(1.,1.),(0.707106781186548,0.707106781186548),(1.,1.),(0.707106781186548,
0.707106781186548),(1.,1.),(0.707106781186548,0.707106781186548),(1.,1.)))
REPRESENTATION_ITEM('')
SURFACE()
);
#98=SHAPE_DEFINITION_REPRESENTATION(#99,#184);
#99=PRODUCT_DEFINITION_SHAPE('Document','',#101);
#100=PRODUCT_DEFINITION_CONTEXT('3D Mechanical Parts',#173,'design');
#101=PRODUCT_DEFINITION('A','First version',#143,#100);
#102=DATE_TIME_ROLE('classification_date');
#103=DATE_TIME_ROLE('creation_date');
#104=APPLIED_DATE_AND_TIME_ASSIGNMENT(#128,#102,(#107));
#105=APPLIED_DATE_AND_TIME_ASSIGNMENT(#130,#103,(#101));
#106=SECURITY_CLASSIFICATION_LEVEL('unclassified');
#107=SECURITY_CLASSIFICATION('A','Security for version',#106);
#108=APPLIED_SECURITY_CLASSIFICATION_ASSIGNMENT(#107,(#143));
#109=APPROVAL_ROLE('Version approval');
#110=APPROVAL_ROLE('Version Security approval');
#111=APPROVAL_ROLE('Definition approval');
#112=APPROVAL_PERSON_ORGANIZATION(#161,#137,#109);
#113=APPROVAL_PERSON_ORGANIZATION(#162,#138,#110);
#114=APPROVAL_PERSON_ORGANIZATION(#165,#139,#111);
#115=COORDINATED_UNIVERSAL_TIME_OFFSET(5,0,.BEHIND.);
#116=LOCAL_TIME(0,0,0.,#115);
#117=LOCAL_TIME(0,0,0.,#115);
#118=LOCAL_TIME(0,0,0.,#115);
#119=LOCAL_TIME(0,0,0.,#115);
#120=LOCAL_TIME(0,0,0.,#115);
#121=CALENDAR_DATE(1999,1,1);
#122=CALENDAR_DATE(1999,1,1);
#123=CALENDAR_DATE(1999,1,1);
#124=CALENDAR_DATE(1999,1,1);
#125=CALENDAR_DATE(1999,1,1);
#126=DATE_AND_TIME(#121,#116);
#127=DATE_AND_TIME(#122,#117);
#128=DATE_AND_TIME(#123,#118);
#129=DATE_AND_TIME(#124,#119);
#130=DATE_AND_TIME(#125,#120);
#131=APPROVAL_DATE_TIME(#126,#137);
#132=APPROVAL_DATE_TIME(#127,#138);
#133=APPROVAL_DATE_TIME(#129,#139);
#134=APPROVAL_STATUS('not_yet_approved');
#135=APPROVAL_STATUS('not_yet_approved');
#136=APPROVAL_STATUS('approved');
#137=APPROVAL(#134,'Version approval');
#138=APPROVAL(#135,'Version Security approval');
#139=APPROVAL(#136,'Definition approval');
#140=APPLIED_APPROVAL_ASSIGNMENT(#137,(#143));
#141=APPLIED_APPROVAL_ASSIGNMENT(#138,(#107));
#142=APPLIED_APPROVAL_ASSIGNMENT(#139,(#101));
#143=PRODUCT_DEFINITION_FORMATION_WITH_SPECIFIED_SOURCE('A',
'First version',#175,.MADE.);
#144=PERSON_AND_ORGANIZATION_ROLE('design_owner');
#145=PERSON_AND_ORGANIZATION_ROLE('creator');
#146=PERSON_AND_ORGANIZATION_ROLE('design_supplier');
#147=PERSON_AND_ORGANIZATION_ROLE('classification_officer');
#148=PERSON_AND_ORGANIZATION_ROLE('creator');
#149=ORGANIZATION('STI','lab','lab');
#150=ORGANIZATION('STI','unknown','unknown');
#151=ORGANIZATION('STI','unknown','unknown');
#152=ORGANIZATION('STI','unknown','unknown');
#153=ORGANIZATION('STI','unknown','unknown');
#154=ORGANIZATION('STI','unknown','unknown');
#155=ORGANIZATION('STI','unknown','unknown');
#156=PERSON('1','Box','vc60',$,$,$);
#157=PERSON('2','last','first',$,$,$);
#158=PERSON('3','President','Mr.',$,$,$);
#159=PERSON_AND_ORGANIZATION(#156,#149);
#160=PERSON_AND_ORGANIZATION(#157,#150);
#161=PERSON_AND_ORGANIZATION(#158,#151);
#162=PERSON_AND_ORGANIZATION(#158,#152);
#163=PERSON_AND_ORGANIZATION(#158,#153);
#164=PERSON_AND_ORGANIZATION(#157,#154);
#165=PERSON_AND_ORGANIZATION(#158,#155);
#166=APPLIED_PERSON_AND_ORGANIZATION_ASSIGNMENT(#159,#144,(#175));
#167=APPLIED_PERSON_AND_ORGANIZATION_ASSIGNMENT(#160,#145,(#143));
#168=APPLIED_PERSON_AND_ORGANIZATION_ASSIGNMENT(#160,#146,(#143));
#169=APPLIED_PERSON_AND_ORGANIZATION_ASSIGNMENT(#163,#147,(#107));
#170=APPLIED_PERSON_AND_ORGANIZATION_ASSIGNMENT(#164,#148,(#101));
#171=PRODUCT_RELATED_PRODUCT_CATEGORY('detail','detail',(#175));
#172=APPLICATION_PROTOCOL_DEFINITION('International Standard',
'config_control_design',1994,#173);
#173=APPLICATION_CONTEXT(
'configuration controlled 3d designs of mechanical parts and assemblie
s');
#174=PRODUCT_CONTEXT('3D Mechanical Parts',#173,'mechanical');
#175=PRODUCT('Document','Document','Rhino converted to STEP',(#174));
#176=(
LENGTH_UNIT()
NAMED_UNIT(*)
SI_UNIT(.MILLI.,.METRE.)
);
#177=(
NAMED_UNIT(*)
PLANE_ANGLE_UNIT()
SI_UNIT($,.RADIAN.)
);
#178=DIMENSIONAL_EXPONENTS(0.,0.,0.,0.,0.,0.,0.);
#179=PLANE_ANGLE_MEASURE_WITH_UNIT(PLANE_ANGLE_MEASURE(0.01745329252),#177);
#180=(
CONVERSION_BASED_UNIT('DEGREES',#179)
NAMED_UNIT(#178)
PLANE_ANGLE_UNIT()
);
#181=(
NAMED_UNIT(*)
SI_UNIT($,.STERADIAN.)
SOLID_ANGLE_UNIT()
);
#182=UNCERTAINTY_MEASURE_WITH_UNIT(LENGTH_MEASURE(0.0001),#176,
'DISTANCE_ACCURACY_VALUE',
'Maximum model space distance between geometric entities at asserted c
onnectivities');
#183=(
GEOMETRIC_REPRESENTATION_CONTEXT(3)
GLOBAL_UNCERTAINTY_ASSIGNED_CONTEXT((#182))
GLOBAL_UNIT_ASSIGNED_CONTEXT((#181,#180,#176))
REPRESENTATION_CONTEXT('ID1','3D')
);
#184=SHAPE_REPRESENTATION('Document',(#185,#188),#183);
#185=AXIS2_PLACEMENT_3D('',#195,#189,#190);
#186=AXIS2_PLACEMENT_3D('',#250,#191,$);
#187=AXIS2_PLACEMENT_3D('',#269,#192,$);
#188=AXIS2_PLACEMENT_3D('',#326,#193,#194);
#189=DIRECTION('',(0.,0.,1.));
#190=DIRECTION('',(1.,0.,0.));
#191=DIRECTION('',(1.,0.,0.));
#192=DIRECTION('',(-1.,0.,0.));
#193=DIRECTION('',(0.,0.,1.));
#194=DIRECTION('',(1.,0.,0.));
#195=CARTESIAN_POINT('',(0.,0.,0.));
#196=CARTESIAN_POINT('',(0.251199999999997,-12.,0.));
#197=CARTESIAN_POINT('',(-2.7512,-12.,0.));
#198=CARTESIAN_POINT('',(0.251199999999997,-12.,12.));
#199=CARTESIAN_POINT('',(-2.7512,-12.,12.));
#200=CARTESIAN_POINT('',(0.251199999999997,-7.34788079488412E-16,12.));
#201=CARTESIAN_POINT('',(-2.7512,-7.34788079488412E-16,12.));
#202=CARTESIAN_POINT('',(0.251199999999997,12.,12.));
#203=CARTESIAN_POINT('',(-2.7512,12.,12.));
#204=CARTESIAN_POINT('',(0.251199999999997,12.,1.46957615897682E-15));
#205=CARTESIAN_POINT('',(-2.7512,12.,1.46957615897682E-15));
#206=CARTESIAN_POINT('',(0.251199999999997,12.,-12.));
#207=CARTESIAN_POINT('',(-2.7512,12.,-12.));
#208=CARTESIAN_POINT('',(0.251199999999997,2.20436423846524E-15,-12.));
#209=CARTESIAN_POINT('',(-2.7512,2.20436423846524E-15,-12.));
#210=CARTESIAN_POINT('',(0.251199999999997,-12.,-12.));
#211=CARTESIAN_POINT('',(-2.7512,-12.,-12.));
#212=CARTESIAN_POINT('',(0.251199999999997,-12.,0.));
#213=CARTESIAN_POINT('',(-2.7512,-12.,0.));
#214=CARTESIAN_POINT('',(0.251199999999997,6.5,0.));
#215=CARTESIAN_POINT('',(0.251199999999997,6.5,-6.5));
#216=CARTESIAN_POINT('',(0.251199999999997,3.9801020972289E-16,-6.5));
#217=CARTESIAN_POINT('',(0.251199999999997,-6.5,-6.5));
#218=CARTESIAN_POINT('',(0.251199999999997,-6.5,-7.9602041944578E-16));
#219=CARTESIAN_POINT('',(0.251199999999997,-6.5,6.5));
#220=CARTESIAN_POINT('',(0.251199999999997,-1.19403062916867E-15,6.5));
#221=CARTESIAN_POINT('',(0.251199999999997,6.5,6.5));
#222=CARTESIAN_POINT('',(0.251199999999997,6.5,0.));
#223=CARTESIAN_POINT('',(-2.7512,6.5,0.));
#224=CARTESIAN_POINT('',(-2.7512,6.5,-6.5));
#225=CARTESIAN_POINT('',(-2.7512,3.9801020972289E-16,-6.5));
#226=CARTESIAN_POINT('',(-2.7512,-6.5,-6.5));
#227=CARTESIAN_POINT('',(-2.7512,-6.5,-7.9602041944578E-16));
#228=CARTESIAN_POINT('',(-2.7512,-6.5,6.5));
#229=CARTESIAN_POINT('',(-2.7512,-1.19403062916867E-15,6.5));
#230=CARTESIAN_POINT('',(-2.7512,6.5,6.5));
#231=CARTESIAN_POINT('',(-2.7512,6.5,0.));
#232=CARTESIAN_POINT('',(0.251199999999997,-6.5,0.));
#233=CARTESIAN_POINT('',(0.251199999999997,-6.5,6.5));
#234=CARTESIAN_POINT('',(0.251199999999997,-3.9801020972289E-16,6.5));
#235=CARTESIAN_POINT('',(0.251199999999997,6.5,6.5));
#236=CARTESIAN_POINT('',(0.251199999999997,6.5,7.9602041944578E-16));
#237=CARTESIAN_POINT('',(0.251199999999997,6.5,-6.5));
#238=CARTESIAN_POINT('',(0.251199999999997,1.19403062916867E-15,-6.5));
#239=CARTESIAN_POINT('',(0.251199999999997,-6.5,-6.5));
#240=CARTESIAN_POINT('',(0.251199999999997,-6.5,0.));
#241=CARTESIAN_POINT('',(-2.7512,-6.5,0.));
#242=CARTESIAN_POINT('',(-2.7512,-6.5,6.5));
#243=CARTESIAN_POINT('',(-2.7512,-3.9801020972289E-16,6.5));
#244=CARTESIAN_POINT('',(-2.7512,6.5,6.5));
#245=CARTESIAN_POINT('',(-2.7512,6.5,7.9602041944578E-16));
#246=CARTESIAN_POINT('',(-2.7512,6.5,-6.5));
#247=CARTESIAN_POINT('',(-2.7512,1.19403062916867E-15,-6.5));
#248=CARTESIAN_POINT('',(-2.7512,-6.5,-6.5));
#249=CARTESIAN_POINT('',(-2.7512,-6.5,0.));
#250=CARTESIAN_POINT('',(0.,-14.4012,-14.4012));
#251=CARTESIAN_POINT('',(0.251199999999997,12.,0.));
#252=CARTESIAN_POINT('',(-2.7512,12.,0.));
#253=CARTESIAN_POINT('',(0.251199999999997,12.,-12.));
#254=CARTESIAN_POINT('',(-2.7512,12.,-12.));
#255=CARTESIAN_POINT('',(0.251199999999997,7.34788079488412E-16,-12.));
#256=CARTESIAN_POINT('',(-2.7512,7.34788079488412E-16,-12.));
#257=CARTESIAN_POINT('',(0.251199999999997,-12.,-12.));
#258=CARTESIAN_POINT('',(-2.7512,-12.,-12.));
#259=CARTESIAN_POINT('',(0.251199999999997,-12.,-1.46957615897682E-15));
#260=CARTESIAN_POINT('',(-2.7512,-12.,-1.46957615897682E-15));
#261=CARTESIAN_POINT('',(0.251199999999997,-12.,12.));
#262=CARTESIAN_POINT('',(-2.7512,-12.,12.));
#263=CARTESIAN_POINT('',(0.251199999999997,-2.20436423846524E-15,12.));
#264=CARTESIAN_POINT('',(-2.7512,-2.20436423846524E-15,12.));
#265=CARTESIAN_POINT('',(0.251199999999997,12.,12.));
#266=CARTESIAN_POINT('',(-2.7512,12.,12.));
#267=CARTESIAN_POINT('',(0.251199999999997,12.,0.));
#268=CARTESIAN_POINT('',(-2.7512,12.,0.));
#269=CARTESIAN_POINT('',(-2.5,-14.4012,14.4012));
#270=CARTESIAN_POINT('',(9.25185853854297E-18,-4.89858719658941E-16,12.));
#271=CARTESIAN_POINT('',(9.25185853854297E-18,4.89858719658941E-16,-12.));
#272=CARTESIAN_POINT('',(-2.5,4.89858719658941E-16,-12.));
#273=CARTESIAN_POINT('',(-2.5,-4.89858719658941E-16,12.));
#274=CARTESIAN_POINT('',(9.25185853854297E-18,2.6534013981526E-16,-6.5));
#275=CARTESIAN_POINT('',(9.25185853854297E-18,-2.6534013981526E-16,6.5));
#276=CARTESIAN_POINT('',(-2.5,2.6534013981526E-16,-6.5));
#277=CARTESIAN_POINT('',(-2.5,-2.6534013981526E-16,6.5));
#278=CARTESIAN_POINT('',(9.25185853854297E-18,-3.20988324064539E-35,12.));
#279=CARTESIAN_POINT('',(0.,12.,12.));
#280=CARTESIAN_POINT('',(-1.85037170770859E-17,12.,7.34788079488412E-16));
#281=CARTESIAN_POINT('',(0.,12.,-12.));
#282=CARTESIAN_POINT('',(9.25185853854297E-18,3.20988324064539E-35,-12.));
#283=CARTESIAN_POINT('',(9.25185853854297E-18,4.89858719658941E-16,-12.));
#284=CARTESIAN_POINT('',(-2.5,4.89858719658941E-16,-12.));
#285=CARTESIAN_POINT('',(-2.5,0.,-12.));
#286=CARTESIAN_POINT('',(-2.5,12.,-12.));
#287=CARTESIAN_POINT('',(-2.5,12.,-7.34788079488412E-16));
#288=CARTESIAN_POINT('',(-2.5,12.,12.));
#289=CARTESIAN_POINT('',(-2.5,0.,12.));
#290=CARTESIAN_POINT('',(-2.5,-4.89858719658941E-16,12.));
#291=CARTESIAN_POINT('',(9.25185853854297E-18,-4.89858719658941E-16,12.));
#292=CARTESIAN_POINT('',(9.25185853854297E-18,4.93630659592175E-32,-6.5));
#293=CARTESIAN_POINT('',(0.,-6.5,-6.5));
#294=CARTESIAN_POINT('',(-1.85037170770859E-17,-6.5,-3.9801020972289E-16));
#295=CARTESIAN_POINT('',(0.,-6.5,6.5));
#296=CARTESIAN_POINT('',(9.25185853854297E-18,-4.93630659592175E-32,6.5));
#297=CARTESIAN_POINT('',(-2.5,2.6534013981526E-16,-6.5));
#298=CARTESIAN_POINT('',(9.25185853854297E-18,2.6534013981526E-16,-6.5));
#299=CARTESIAN_POINT('',(-2.5,-4.93038065763132E-32,6.5));
#300=CARTESIAN_POINT('',(-2.5,-6.5,6.5));
#301=CARTESIAN_POINT('',(-2.5,-6.5,3.9801020972289E-16));
#302=CARTESIAN_POINT('',(-2.5,-6.5,-6.5));
#303=CARTESIAN_POINT('',(-2.5,4.93038065763132E-32,-6.5));
#304=CARTESIAN_POINT('',(9.25185853854297E-18,-2.6534013981526E-16,6.5));
#305=CARTESIAN_POINT('',(-2.5,-2.6534013981526E-16,6.5));
#306=CARTESIAN_POINT('',(9.25185853854297E-18,-4.93630659592175E-32,6.5));
#307=CARTESIAN_POINT('',(0.,6.5,6.5));
#308=CARTESIAN_POINT('',(-1.85037170770859E-17,6.5,3.9801020972289E-16));
#309=CARTESIAN_POINT('',(0.,6.5,-6.5));
#310=CARTESIAN_POINT('',(9.25185853854297E-18,4.93630659592175E-32,-6.5));
#311=CARTESIAN_POINT('',(-2.5,4.93038065763132E-32,-6.5));
#312=CARTESIAN_POINT('',(-2.5,6.5,-6.5));
#313=CARTESIAN_POINT('',(-2.5,6.5,-3.9801020972289E-16));
#314=CARTESIAN_POINT('',(-2.5,6.5,6.5));
#315=CARTESIAN_POINT('',(-2.5,-4.93038065763132E-32,6.5));
#316=CARTESIAN_POINT('',(9.25185853854297E-18,3.20988324064539E-35,-12.));
#317=CARTESIAN_POINT('',(0.,-12.,-12.));
#318=CARTESIAN_POINT('',(-1.85037170770859E-17,-12.,-7.34788079488412E-16));
#319=CARTESIAN_POINT('',(0.,-12.,12.));
#320=CARTESIAN_POINT('',(9.25185853854297E-18,-3.20988324064539E-35,12.));
#321=CARTESIAN_POINT('',(-2.5,0.,12.));
#322=CARTESIAN_POINT('',(-2.5,-12.,12.));
#323=CARTESIAN_POINT('',(-2.5,-12.,7.34788079488412E-16));
#324=CARTESIAN_POINT('',(-2.5,-12.,-12.));
#325=CARTESIAN_POINT('',(-2.5,0.,-12.));
#326=CARTESIAN_POINT('',(0.,0.,0.));
ENDSEC;
END-ISO-10303-21;
