ISO-10303-21;
HEADER;
FILE_DESCRIPTION (( 'STEP AP214' ),
    '1' );
FILE_NAME ('3403076.stp',
    '2024-05-02T15:23:04',
    ( '' ),
    ( '' ),
    'SwSTEP 2.0',
    'SolidWorks 2022',
    '' );
FILE_SCHEMA (( 'AUTOMOTIVE_DESIGN' ));
ENDSEC;

DATA;
#1 = CARTESIAN_POINT ( 'NONE',  ( 3.200000000000000178, 0.000000000000000000, 0.000000000000000000 ) ) ;
#2 = DIRECTION ( 'NONE',  ( 1.000000000000000000, 0.000000000000000000, 0.000000000000000000 ) ) ;
#3 = CLOSED_SHELL ( 'NONE', ( #134, #122, #86, #129 ) ) ;
#4 = PRODUCT_CONTEXT ( 'NONE', #67, 'mechanical' ) ;
#5 = AXIS2_PLACEMENT_3D ( 'NONE', #74, #51, #98 ) ;
#6 = EDGE_LOOP ( 'NONE', ( #25 ) ) ;
#7 = DIRECTION ( 'NONE',  ( 1.000000000000000000, 0.000000000000000000, 0.000000000000000000 ) ) ;
#8 = DIRECTION ( 'NONE',  ( 1.000000000000000000, 0.000000000000000000, 0.000000000000000000 ) ) ;
#9 = FACE_OUTER_BOUND ( 'NONE', #109, .T. ) ;
#10 = FACE_BOUND ( 'NONE', #14, .T. ) ;
#11 = STYLED_ITEM ( 'NONE', ( #84 ), #58 ) ;
#12 = CYLINDRICAL_SURFACE ( 'NONE', #102, 10.00000000000000000 ) ;
#13 = CIRCLE ( 'NONE', #87, 3.200000000000000178 ) ;
#14 = EDGE_LOOP ( 'NONE', ( #18 ) ) ;
#15 = MECHANICAL_DESIGN_GEOMETRIC_PRESENTATION_REPRESENTATION (  '', ( #34 ), #61 ) ;
#16 = ORIENTED_EDGE ( 'NONE', *, *, #17, .F. ) ;
#17 = EDGE_CURVE ( 'NONE', #73, #73, #97, .T. ) ;
#18 = ORIENTED_EDGE ( 'NONE', *, *, #93, .T. ) ;
#19 =( NAMED_UNIT ( * ) PLANE_ANGLE_UNIT ( ) SI_UNIT ( $, .RADIAN. ) );
#20 = AXIS2_PLACEMENT_3D ( 'NONE', #130, #117, #7 ) ;
#21 = MANIFOLD_SOLID_BREP ( 'Aufsatz-Linear austragen1', #3 ) ;
#22 = VERTEX_POINT ( 'NONE', #79 ) ;
#23 = FACE_BOUND ( 'NONE', #119, .T. ) ;
#24 =( NAMED_UNIT ( * ) SI_UNIT ( $, .STERADIAN. ) SOLID_ANGLE_UNIT ( ) );
#25 = ORIENTED_EDGE ( 'NONE', *, *, #75, .F. ) ;
#26 = CIRCLE ( 'NONE', #20, 10.00000000000000000 ) ;
#27 = UNCERTAINTY_MEASURE_WITH_UNIT (LENGTH_MEASURE( 1.000000000000000082E-05 ), #91, 'distance_accuracy_value', 'NONE');
#28 = PRESENTATION_STYLE_ASSIGNMENT (( #78 ) ) ;
#29 =( NAMED_UNIT ( * ) SI_UNIT ( $, .STERADIAN. ) SOLID_ANGLE_UNIT ( ) );
#30 = PLANE ( 'NONE',  #44 ) ;
#31 =( GEOMETRIC_REPRESENTATION_CONTEXT ( 3 ) GLOBAL_UNCERTAINTY_ASSIGNED_CONTEXT ( ( #120 ) ) GLOBAL_UNIT_ASSIGNED_CONTEXT ( ( #125, #80, #29 ) ) REPRESENTATION_CONTEXT ( 'NONE', 'WORKASPACE' ) );
#32 = FILL_AREA_STYLE ('',( #81 ) ) ;
#33 = ORIENTED_EDGE ( 'NONE', *, *, #17, .T. ) ;
#34 = STYLED_ITEM ( 'NONE', ( #28 ), #21 ) ;
#35 = SURFACE_SIDE_STYLE ('',( #89 ) ) ;
#36 = FILL_AREA_STYLE_COLOUR ( '', #118 ) ;
#37 = DIRECTION ( 'NONE',  ( -1.000000000000000000, 0.000000000000000000, 0.000000000000000000 ) ) ;
#38 = FACE_OUTER_BOUND ( 'NONE', #133, .T. ) ;
#39 = PRODUCT_RELATED_PRODUCT_CATEGORY ( 'part', '', ( #55 ) ) ;
#40 = VERTEX_POINT ( 'NONE', #1 ) ;
#41 = DIRECTION ( 'NONE',  ( 1.000000000000000000, 0.000000000000000000, 0.000000000000000000 ) ) ;
#42 = SURFACE_STYLE_USAGE ( .BOTH. , #59 ) ;
#43 = AXIS2_PLACEMENT_3D ( 'NONE', #62, #92, #37 ) ;
#44 = AXIS2_PLACEMENT_3D ( 'NONE', #63, #106, #94 ) ;
#45 = CARTESIAN_POINT ( 'NONE',  ( 0.000000000000000000, 0.000000000000000000, 1.250000000000000000 ) ) ;
#46 = ORIENTED_EDGE ( 'NONE', *, *, #82, .F. ) ;
#47 = VERTEX_POINT ( 'NONE', #114 ) ;
#48 = DIRECTION ( 'NONE',  ( -0.000000000000000000, -0.000000000000000000, -1.000000000000000000 ) ) ;
#49 = CARTESIAN_POINT ( 'NONE',  ( 0.000000000000000000, 0.000000000000000000, 1.250000000000000000 ) ) ;
#50 = CARTESIAN_POINT ( 'NONE',  ( 0.000000000000000000, 0.000000000000000000, 0.000000000000000000 ) ) ;
#51 = DIRECTION ( 'NONE',  ( 0.000000000000000000, 0.000000000000000000, 1.000000000000000000 ) ) ;
#52 =( GEOMETRIC_REPRESENTATION_CONTEXT ( 3 ) GLOBAL_UNCERTAINTY_ASSIGNED_CONTEXT ( ( #27 ) ) GLOBAL_UNIT_ASSIGNED_CONTEXT ( ( #91, #85, #24 ) ) REPRESENTATION_CONTEXT ( 'NONE', 'WORKASPACE' ) );
#53 = PRODUCT_DEFINITION_SHAPE ( 'NONE', 'NONE',  #127 ) ;
#54 = EDGE_LOOP ( 'NONE', ( #16 ) ) ;
#55 = PRODUCT ( '3403076', '3403076', '', ( #4 ) ) ;
#56 = ORIENTED_EDGE ( 'NONE', *, *, #75, .T. ) ;
#57 = EDGE_LOOP ( 'NONE', ( #132 ) ) ;
#58 = ADVANCED_BREP_SHAPE_REPRESENTATION ( '3403076', ( #21, #5 ), #31 ) ;
#59 = SURFACE_SIDE_STYLE ('',( #115 ) ) ;
#60 = CARTESIAN_POINT ( 'NONE',  ( 0.000000000000000000, 0.000000000000000000, 1.250000000000000000 ) ) ;
#61 =( GEOMETRIC_REPRESENTATION_CONTEXT ( 3 ) GLOBAL_UNCERTAINTY_ASSIGNED_CONTEXT ( ( #131 ) ) GLOBAL_UNIT_ASSIGNED_CONTEXT ( ( #101, #19, #99 ) ) REPRESENTATION_CONTEXT ( 'NONE', 'WORKASPACE' ) );
#62 = CARTESIAN_POINT ( 'NONE',  ( 0.000000000000000000, 0.000000000000000000, 1.250000000000000000 ) ) ;
#63 = CARTESIAN_POINT ( 'NONE',  ( 0.000000000000000000, 0.000000000000000000, 1.250000000000000000 ) ) ;
#64 = AXIS2_PLACEMENT_3D ( 'NONE', #69, #113, #116 ) ;
#65 = SHAPE_DEFINITION_REPRESENTATION ( #53, #58 ) ;
#66 = MECHANICAL_DESIGN_GEOMETRIC_PRESENTATION_REPRESENTATION (  '', ( #11 ), #52 ) ;
#67 = APPLICATION_CONTEXT ( 'automotive_design' ) ;
#68 = DIRECTION ( 'NONE',  ( -1.000000000000000000, 0.000000000000000000, 0.000000000000000000 ) ) ;
#69 = CARTESIAN_POINT ( 'NONE',  ( 0.000000000000000000, 0.000000000000000000, 0.000000000000000000 ) ) ;
#70 = DIRECTION ( 'NONE',  ( 0.000000000000000000, 0.000000000000000000, 1.000000000000000000 ) ) ;
#71 = PRODUCT_DEFINITION_FORMATION_WITH_SPECIFIED_SOURCE ( 'ANY', '', #55, .NOT_KNOWN. ) ;
#72 = CYLINDRICAL_SURFACE ( 'NONE', #43, 3.200000000000000178 ) ;
#73 = VERTEX_POINT ( 'NONE', #107 ) ;
#74 = CARTESIAN_POINT ( 'NONE',  ( 0.000000000000000000, 0.000000000000000000, 0.000000000000000000 ) ) ;
#75 = EDGE_CURVE ( 'NONE', #47, #47, #26, .T. ) ;
#76 = FILL_AREA_STYLE ('',( #36 ) ) ;
#77 = COLOUR_RGB ( '',0.7529411764705882248, 0.7529411764705882248, 0.7529411764705882248 ) ;
#78 = SURFACE_STYLE_USAGE ( .BOTH. , #35 ) ;
#79 = CARTESIAN_POINT ( 'NONE',  ( 3.200000000000000178, 0.000000000000000000, 1.250000000000000000 ) ) ;
#80 =( NAMED_UNIT ( * ) PLANE_ANGLE_UNIT ( ) SI_UNIT ( $, .RADIAN. ) );
#81 = FILL_AREA_STYLE_COLOUR ( '', #77 ) ;
#82 = EDGE_CURVE ( 'NONE', #22, #22, #13, .T. ) ;
#83 = AXIS2_PLACEMENT_3D ( 'NONE', #50, #70, #2 ) ;
#84 = PRESENTATION_STYLE_ASSIGNMENT (( #42 ) ) ;
#85 =( NAMED_UNIT ( * ) PLANE_ANGLE_UNIT ( ) SI_UNIT ( $, .RADIAN. ) );
#86 = ADVANCED_FACE ( 'NONE', ( #104, #9 ), #12, .T. ) ;
#87 = AXIS2_PLACEMENT_3D ( 'NONE', #60, #108, #41 ) ;
#88 = APPLICATION_CONTEXT ( 'automotive_design' ) ;
#89 = SURFACE_STYLE_FILL_AREA ( #76 ) ;
#90 = DIRECTION ( 'NONE',  ( 0.000000000000000000, 0.000000000000000000, 1.000000000000000000 ) ) ;
#91 =( LENGTH_UNIT ( ) NAMED_UNIT ( * ) SI_UNIT ( .MILLI., .METRE. ) );
#92 = DIRECTION ( 'NONE',  ( -0.000000000000000000, -0.000000000000000000, -1.000000000000000000 ) ) ;
#93 = EDGE_CURVE ( 'NONE', #40, #40, #95, .T. ) ;
#94 = DIRECTION ( 'NONE',  ( 1.000000000000000000, 0.000000000000000000, -0.000000000000000000 ) ) ;
#95 = CIRCLE ( 'NONE', #83, 3.200000000000000178 ) ;
#96 = APPLICATION_PROTOCOL_DEFINITION ( 'draft international standard', 'automotive_design', 1998, #88 ) ;
#97 = CIRCLE ( 'NONE', #121, 10.00000000000000000 ) ;
#98 = DIRECTION ( 'NONE',  ( 1.000000000000000000, 0.000000000000000000, 0.000000000000000000 ) ) ;
#99 =( NAMED_UNIT ( * ) SI_UNIT ( $, .STERADIAN. ) SOLID_ANGLE_UNIT ( ) );
#100 = ORIENTED_EDGE ( 'NONE', *, *, #93, .F. ) ;
#101 =( LENGTH_UNIT ( ) NAMED_UNIT ( * ) SI_UNIT ( .MILLI., .METRE. ) );
#102 = AXIS2_PLACEMENT_3D ( 'NONE', #49, #48, #68 ) ;
#103 = APPLICATION_PROTOCOL_DEFINITION ( 'draft international standard', 'automotive_design', 1998, #67 ) ;
#104 = FACE_OUTER_BOUND ( 'NONE', #54, .T. ) ;
#105 = PRODUCT_DEFINITION_CONTEXT ( 'detailed design', #88, 'design' ) ;
#106 = DIRECTION ( 'NONE',  ( 0.000000000000000000, 0.000000000000000000, 1.000000000000000000 ) ) ;
#107 = CARTESIAN_POINT ( 'NONE',  ( 10.00000000000000000, 0.000000000000000000, 1.250000000000000000 ) ) ;
#108 = DIRECTION ( 'NONE',  ( 0.000000000000000000, 0.000000000000000000, 1.000000000000000000 ) ) ;
#109 = EDGE_LOOP ( 'NONE', ( #56 ) ) ;
#110 = PRESENTATION_LAYER_ASSIGNMENT (  '', '', ( #34 ) ) ;
#111 = EDGE_LOOP ( 'NONE', ( #100 ) ) ;
#112 = FACE_OUTER_BOUND ( 'NONE', #57, .T. ) ;
#113 = DIRECTION ( 'NONE',  ( 0.000000000000000000, 0.000000000000000000, 1.000000000000000000 ) ) ;
#114 = CARTESIAN_POINT ( 'NONE',  ( 10.00000000000000000, 0.000000000000000000, 0.000000000000000000 ) ) ;
#115 = SURFACE_STYLE_FILL_AREA ( #32 ) ;
#116 = DIRECTION ( 'NONE',  ( 1.000000000000000000, 0.000000000000000000, -0.000000000000000000 ) ) ;
#117 = DIRECTION ( 'NONE',  ( 0.000000000000000000, 0.000000000000000000, 1.000000000000000000 ) ) ;
#118 = COLOUR_RGB ( '',0.7529411764705882248, 0.7529411764705882248, 0.7529411764705882248 ) ;
#119 = EDGE_LOOP ( 'NONE', ( #46 ) ) ;
#120 = UNCERTAINTY_MEASURE_WITH_UNIT (LENGTH_MEASURE( 1.000000000000000082E-05 ), #125, 'distance_accuracy_value', 'NONE');
#121 = AXIS2_PLACEMENT_3D ( 'NONE', #45, #90, #8 ) ;
#122 = ADVANCED_FACE ( 'NONE', ( #124, #10 ), #123, .F. ) ;
#123 = PLANE ( 'NONE',  #64 ) ;
#124 = FACE_OUTER_BOUND ( 'NONE', #6, .T. ) ;
#125 =( LENGTH_UNIT ( ) NAMED_UNIT ( * ) SI_UNIT ( .MILLI., .METRE. ) );
#126 = FACE_OUTER_BOUND ( 'NONE', #111, .T. ) ;
#127 = PRODUCT_DEFINITION ( 'UNKNOWN', '', #71, #105 ) ;
#128 = PRESENTATION_LAYER_ASSIGNMENT (  '', '', ( #11 ) ) ;
#129 = ADVANCED_FACE ( 'NONE', ( #112, #126 ), #72, .F. ) ;
#130 = CARTESIAN_POINT ( 'NONE',  ( 0.000000000000000000, 0.000000000000000000, 0.000000000000000000 ) ) ;
#131 = UNCERTAINTY_MEASURE_WITH_UNIT (LENGTH_MEASURE( 1.000000000000000082E-05 ), #101, 'distance_accuracy_value', 'NONE');
#132 = ORIENTED_EDGE ( 'NONE', *, *, #82, .T. ) ;
#133 = EDGE_LOOP ( 'NONE', ( #33 ) ) ;
#134 = ADVANCED_FACE ( 'NONE', ( #38, #23 ), #30, .T. ) ;
ENDSEC;
END-ISO-10303-21;
