ISO-10303-21;
HEADER;
FILE_DESCRIPTION (( 'STEP AP214' ),
    '1' );
FILE_NAME ('3403084.stp',
    '2024-05-02T15:24:20',
    ( '' ),
    ( '' ),
    'SwSTEP 2.0',
    'SolidWorks 2022',
    '' );
FILE_SCHEMA (( 'AUTOMOTIVE_DESIGN' ));
ENDSEC;

DATA;
#1 = MANIFOLD_SOLID_BREP ( 'Aufsatz-Linear austragen1', #72 ) ;
#2 =( NAMED_UNIT ( * ) SI_UNIT ( $, .STERADIAN. ) SOLID_ANGLE_UNIT ( ) );
#3 = AXIS2_PLACEMENT_3D ( 'NONE', #15, #88, #82 ) ;
#4 = PRODUCT ( '3403084', '3403084', '', ( #43 ) ) ;
#5 = EDGE_LOOP ( 'NONE', ( #115 ) ) ;
#6 = EDGE_LOOP ( 'NONE', ( #64 ) ) ;
#7 = DIRECTION ( 'NONE',  ( 1.000000000000000000, 0.000000000000000000, 0.000000000000000000 ) ) ;
#8 = VERTEX_POINT ( 'NONE', #70 ) ;
#9 = MECHANICAL_DESIGN_GEOMETRIC_PRESENTATION_REPRESENTATION (  '', ( #18 ), #34 ) ;
#10 = CARTESIAN_POINT ( 'NONE',  ( 0.000000000000000000, 0.000000000000000000, 0.000000000000000000 ) ) ;
#11 = APPLICATION_PROTOCOL_DEFINITION ( 'draft international standard', 'automotive_design', 1998, #53 ) ;
#12 = COLOUR_RGB ( '',0.7529411764705882248, 0.7529411764705882248, 0.7529411764705882248 ) ;
#13 = CYLINDRICAL_SURFACE ( 'NONE', #63, 12.50000000000000000 ) ;
#14 = PRESENTATION_LAYER_ASSIGNMENT (  '', '', ( #18 ) ) ;
#15 = CARTESIAN_POINT ( 'NONE',  ( 0.000000000000000000, 0.000000000000000000, 1.250000000000000000 ) ) ;
#16 = DIRECTION ( 'NONE',  ( 1.000000000000000000, 0.000000000000000000, 0.000000000000000000 ) ) ;
#17 = VERTEX_POINT ( 'NONE', #47 ) ;
#18 = STYLED_ITEM ( 'NONE', ( #113 ), #1 ) ;
#19 =( NAMED_UNIT ( * ) PLANE_ANGLE_UNIT ( ) SI_UNIT ( $, .RADIAN. ) );
#20 = SURFACE_STYLE_FILL_AREA ( #127 ) ;
#21 = PRODUCT_RELATED_PRODUCT_CATEGORY ( 'part', '', ( #4 ) ) ;
#22 = PRODUCT_DEFINITION_CONTEXT ( 'detailed design', #103, 'design' ) ;
#23 = ORIENTED_EDGE ( 'NONE', *, *, #124, .F. ) ;
#24 = SURFACE_STYLE_USAGE ( .BOTH. , #114 ) ;
#25 = DIRECTION ( 'NONE',  ( 1.000000000000000000, 0.000000000000000000, -0.000000000000000000 ) ) ;
#26 = AXIS2_PLACEMENT_3D ( 'NONE', #60, #81, #16 ) ;
#27 = FACE_OUTER_BOUND ( 'NONE', #130, .T. ) ;
#28 = FACE_BOUND ( 'NONE', #98, .T. ) ;
#29 =( NAMED_UNIT ( * ) PLANE_ANGLE_UNIT ( ) SI_UNIT ( $, .RADIAN. ) );
#30 = CYLINDRICAL_SURFACE ( 'NONE', #3, 3.200000000000000178 ) ;
#31 = APPLICATION_PROTOCOL_DEFINITION ( 'draft international standard', 'automotive_design', 1998, #103 ) ;
#32 = FILL_AREA_STYLE_COLOUR ( '', #12 ) ;
#33 = PRESENTATION_STYLE_ASSIGNMENT (( #42 ) ) ;
#34 =( GEOMETRIC_REPRESENTATION_CONTEXT ( 3 ) GLOBAL_UNCERTAINTY_ASSIGNED_CONTEXT ( ( #75 ) ) GLOBAL_UNIT_ASSIGNED_CONTEXT ( ( #106, #95, #102 ) ) REPRESENTATION_CONTEXT ( 'NONE', 'WORKASPACE' ) );
#35 = STYLED_ITEM ( 'NONE', ( #33 ), #73 ) ;
#36 = ORIENTED_EDGE ( 'NONE', *, *, #124, .T. ) ;
#37 = PLANE ( 'NONE',  #71 ) ;
#38 = DIRECTION ( 'NONE',  ( 1.000000000000000000, 0.000000000000000000, 0.000000000000000000 ) ) ;
#39 = CIRCLE ( 'NONE', #51, 3.200000000000000178 ) ;
#40 = CARTESIAN_POINT ( 'NONE',  ( 0.000000000000000000, 0.000000000000000000, 1.250000000000000000 ) ) ;
#41 = MECHANICAL_DESIGN_GEOMETRIC_PRESENTATION_REPRESENTATION (  '', ( #35 ), #66 ) ;
#42 = SURFACE_STYLE_USAGE ( .BOTH. , #83 ) ;
#43 = PRODUCT_CONTEXT ( 'NONE', #53, 'mechanical' ) ;
#44 = PRODUCT_DEFINITION ( 'UNKNOWN', '', #85, #22 ) ;
#45 = EDGE_LOOP ( 'NONE', ( #76 ) ) ;
#46 = CARTESIAN_POINT ( 'NONE',  ( 0.000000000000000000, 0.000000000000000000, 1.250000000000000000 ) ) ;
#47 = CARTESIAN_POINT ( 'NONE',  ( 3.200000000000000178, 0.000000000000000000, 0.000000000000000000 ) ) ;
#48 = DIRECTION ( 'NONE',  ( 0.000000000000000000, 0.000000000000000000, 1.000000000000000000 ) ) ;
#49 = VERTEX_POINT ( 'NONE', #111 ) ;
#50 = FACE_OUTER_BOUND ( 'NONE', #45, .T. ) ;
#51 = AXIS2_PLACEMENT_3D ( 'NONE', #87, #119, #7 ) ;
#52 = DIRECTION ( 'NONE',  ( 0.000000000000000000, 0.000000000000000000, 1.000000000000000000 ) ) ;
#53 = APPLICATION_CONTEXT ( 'automotive_design' ) ;
#54 = CIRCLE ( 'NONE', #26, 12.50000000000000000 ) ;
#55 = EDGE_LOOP ( 'NONE', ( #23 ) ) ;
#56 = ADVANCED_FACE ( 'NONE', ( #50, #27 ), #13, .T. ) ;
#57 = DIRECTION ( 'NONE',  ( 1.000000000000000000, 0.000000000000000000, 0.000000000000000000 ) ) ;
#58 = DIRECTION ( 'NONE',  ( 0.000000000000000000, 0.000000000000000000, 1.000000000000000000 ) ) ;
#59 =( NAMED_UNIT ( * ) SI_UNIT ( $, .STERADIAN. ) SOLID_ANGLE_UNIT ( ) );
#60 = CARTESIAN_POINT ( 'NONE',  ( 0.000000000000000000, 0.000000000000000000, 0.000000000000000000 ) ) ;
#61 =( LENGTH_UNIT ( ) NAMED_UNIT ( * ) SI_UNIT ( .MILLI., .METRE. ) );
#62 = AXIS2_PLACEMENT_3D ( 'NONE', #133, #48, #38 ) ;
#63 = AXIS2_PLACEMENT_3D ( 'NONE', #40, #92, #123 ) ;
#64 = ORIENTED_EDGE ( 'NONE', *, *, #131, .F. ) ;
#65 = UNCERTAINTY_MEASURE_WITH_UNIT (LENGTH_MEASURE( 1.000000000000000082E-05 ), #61, 'distance_accuracy_value', 'NONE');
#66 =( GEOMETRIC_REPRESENTATION_CONTEXT ( 3 ) GLOBAL_UNCERTAINTY_ASSIGNED_CONTEXT ( ( #65 ) ) GLOBAL_UNIT_ASSIGNED_CONTEXT ( ( #61, #19, #2 ) ) REPRESENTATION_CONTEXT ( 'NONE', 'WORKASPACE' ) );
#67 = CARTESIAN_POINT ( 'NONE',  ( 0.000000000000000000, 0.000000000000000000, 0.000000000000000000 ) ) ;
#68 = DIRECTION ( 'NONE',  ( 1.000000000000000000, 0.000000000000000000, -0.000000000000000000 ) ) ;
#69 = ADVANCED_FACE ( 'NONE', ( #99, #134 ), #30, .F. ) ;
#70 = CARTESIAN_POINT ( 'NONE',  ( 12.50000000000000000, 0.000000000000000000, 0.000000000000000000 ) ) ;
#71 = AXIS2_PLACEMENT_3D ( 'NONE', #67, #58, #68 ) ;
#72 = CLOSED_SHELL ( 'NONE', ( #105, #117, #56, #69 ) ) ;
#73 = ADVANCED_BREP_SHAPE_REPRESENTATION ( '3403084', ( #1, #126 ), #93 ) ;
#74 = SURFACE_STYLE_FILL_AREA ( #97 ) ;
#75 = UNCERTAINTY_MEASURE_WITH_UNIT (LENGTH_MEASURE( 1.000000000000000082E-05 ), #106, 'distance_accuracy_value', 'NONE');
#76 = ORIENTED_EDGE ( 'NONE', *, *, #109, .F. ) ;
#77 = AXIS2_PLACEMENT_3D ( 'NONE', #46, #118, #25 ) ;
#78 = EDGE_LOOP ( 'NONE', ( #129 ) ) ;
#79 = PLANE ( 'NONE',  #77 ) ;
#80 = AXIS2_PLACEMENT_3D ( 'NONE', #10, #91, #57 ) ;
#81 = DIRECTION ( 'NONE',  ( 0.000000000000000000, 0.000000000000000000, 1.000000000000000000 ) ) ;
#82 = DIRECTION ( 'NONE',  ( -1.000000000000000000, 0.000000000000000000, 0.000000000000000000 ) ) ;
#83 = SURFACE_SIDE_STYLE ('',( #20 ) ) ;
#84 = CIRCLE ( 'NONE', #62, 12.50000000000000000 ) ;
#85 = PRODUCT_DEFINITION_FORMATION_WITH_SPECIFIED_SOURCE ( 'ANY', '', #4, .NOT_KNOWN. ) ;
#86 = ORIENTED_EDGE ( 'NONE', *, *, #131, .T. ) ;
#87 = CARTESIAN_POINT ( 'NONE',  ( 0.000000000000000000, 0.000000000000000000, 1.250000000000000000 ) ) ;
#88 = DIRECTION ( 'NONE',  ( -0.000000000000000000, -0.000000000000000000, -1.000000000000000000 ) ) ;
#89 = EDGE_CURVE ( 'NONE', #49, #49, #39, .T. ) ;
#90 =( LENGTH_UNIT ( ) NAMED_UNIT ( * ) SI_UNIT ( .MILLI., .METRE. ) );
#91 = DIRECTION ( 'NONE',  ( 0.000000000000000000, 0.000000000000000000, 1.000000000000000000 ) ) ;
#92 = DIRECTION ( 'NONE',  ( -0.000000000000000000, -0.000000000000000000, -1.000000000000000000 ) ) ;
#93 =( GEOMETRIC_REPRESENTATION_CONTEXT ( 3 ) GLOBAL_UNCERTAINTY_ASSIGNED_CONTEXT ( ( #107 ) ) GLOBAL_UNIT_ASSIGNED_CONTEXT ( ( #90, #29, #59 ) ) REPRESENTATION_CONTEXT ( 'NONE', 'WORKASPACE' ) );
#94 = SHAPE_DEFINITION_REPRESENTATION ( #96, #73 ) ;
#95 =( NAMED_UNIT ( * ) PLANE_ANGLE_UNIT ( ) SI_UNIT ( $, .RADIAN. ) );
#96 = PRODUCT_DEFINITION_SHAPE ( 'NONE', 'NONE',  #44 ) ;
#97 = FILL_AREA_STYLE ('',( #116 ) ) ;
#98 = EDGE_LOOP ( 'NONE', ( #86 ) ) ;
#99 = FACE_OUTER_BOUND ( 'NONE', #78, .T. ) ;
#100 = VERTEX_POINT ( 'NONE', #101 ) ;
#101 = CARTESIAN_POINT ( 'NONE',  ( 12.50000000000000000, 0.000000000000000000, 1.250000000000000000 ) ) ;
#102 =( NAMED_UNIT ( * ) SI_UNIT ( $, .STERADIAN. ) SOLID_ANGLE_UNIT ( ) );
#103 = APPLICATION_CONTEXT ( 'automotive_design' ) ;
#104 = PRESENTATION_LAYER_ASSIGNMENT (  '', '', ( #35 ) ) ;
#105 = ADVANCED_FACE ( 'NONE', ( #120, #110 ), #79, .T. ) ;
#106 =( LENGTH_UNIT ( ) NAMED_UNIT ( * ) SI_UNIT ( .MILLI., .METRE. ) );
#107 = UNCERTAINTY_MEASURE_WITH_UNIT (LENGTH_MEASURE( 1.000000000000000082E-05 ), #90, 'distance_accuracy_value', 'NONE');
#108 = EDGE_LOOP ( 'NONE', ( #132 ) ) ;
#109 = EDGE_CURVE ( 'NONE', #100, #100, #84, .T. ) ;
#110 = FACE_BOUND ( 'NONE', #108, .T. ) ;
#111 = CARTESIAN_POINT ( 'NONE',  ( 3.200000000000000178, 0.000000000000000000, 1.250000000000000000 ) ) ;
#112 = DIRECTION ( 'NONE',  ( 1.000000000000000000, 0.000000000000000000, 0.000000000000000000 ) ) ;
#113 = PRESENTATION_STYLE_ASSIGNMENT (( #24 ) ) ;
#114 = SURFACE_SIDE_STYLE ('',( #74 ) ) ;
#115 = ORIENTED_EDGE ( 'NONE', *, *, #109, .T. ) ;
#116 = FILL_AREA_STYLE_COLOUR ( '', #128 ) ;
#117 = ADVANCED_FACE ( 'NONE', ( #121, #28 ), #37, .F. ) ;
#118 = DIRECTION ( 'NONE',  ( 0.000000000000000000, 0.000000000000000000, 1.000000000000000000 ) ) ;
#119 = DIRECTION ( 'NONE',  ( 0.000000000000000000, 0.000000000000000000, 1.000000000000000000 ) ) ;
#120 = FACE_OUTER_BOUND ( 'NONE', #5, .T. ) ;
#121 = FACE_OUTER_BOUND ( 'NONE', #55, .T. ) ;
#122 = CIRCLE ( 'NONE', #80, 3.200000000000000178 ) ;
#123 = DIRECTION ( 'NONE',  ( -1.000000000000000000, 0.000000000000000000, 0.000000000000000000 ) ) ;
#124 = EDGE_CURVE ( 'NONE', #8, #8, #54, .T. ) ;
#125 = CARTESIAN_POINT ( 'NONE',  ( 0.000000000000000000, 0.000000000000000000, 0.000000000000000000 ) ) ;
#126 = AXIS2_PLACEMENT_3D ( 'NONE', #125, #52, #112 ) ;
#127 = FILL_AREA_STYLE ('',( #32 ) ) ;
#128 = COLOUR_RGB ( '',0.7529411764705882248, 0.7529411764705882248, 0.7529411764705882248 ) ;
#129 = ORIENTED_EDGE ( 'NONE', *, *, #89, .T. ) ;
#130 = EDGE_LOOP ( 'NONE', ( #36 ) ) ;
#131 = EDGE_CURVE ( 'NONE', #17, #17, #122, .T. ) ;
#132 = ORIENTED_EDGE ( 'NONE', *, *, #89, .F. ) ;
#133 = CARTESIAN_POINT ( 'NONE',  ( 0.000000000000000000, 0.000000000000000000, 1.250000000000000000 ) ) ;
#134 = FACE_OUTER_BOUND ( 'NONE', #6, .T. ) ;
ENDSEC;
END-ISO-10303-21;
