ISO-10303-21;
HEADER;
FILE_DESCRIPTION (( 'STEP AP214' ),
    '1' );
FILE_NAME ('3403127 964 M8 G20 V4A.STEP',
    '2024-05-06T07:15:16',
    ( '' ),
    ( '' ),
    'SwSTEP 2.0',
    'SolidWorks 2022',
    '' );
FILE_SCHEMA (( 'AUTOMOTIVE_DESIGN' ));
ENDSEC;

DATA;
#1 = VERTEX_POINT ( 'NONE', #199 ) ;
#2 = DIRECTION ( 'NONE',  ( 1.000000000000000000, 0.000000000000000000, 0.000000000000000000 ) ) ;
#3 =( LENGTH_UNIT ( ) NAMED_UNIT ( * ) SI_UNIT ( .MILLI., .METRE. ) );
#4 = SURFACE_STYLE_FILL_AREA ( #105 ) ;
#5 = FACE_OUTER_BOUND ( 'NONE', #36, .T. ) ;
#6 = CARTESIAN_POINT ( 'NONE',  ( 0.000000000000000000, 0.000000000000000000, 1.250000000000000000 ) ) ;
#7 = UNCERTAINTY_MEASURE_WITH_UNIT (LENGTH_MEASURE( 1.000000000000000082E-05 ), #54, 'distance_accuracy_value', 'NONE');
#8 = ORIENTED_EDGE ( 'NONE', *, *, #50, .F. ) ;
#9 = SURFACE_STYLE_USAGE ( .BOTH. , #119 ) ;
#10 = EDGE_CURVE ( 'NONE', #161, #1, #92, .T. ) ;
#11 = EDGE_CURVE ( 'NONE', #33, #209, #181, .T. ) ;
#12 = APPLICATION_PROTOCOL_DEFINITION ( 'draft international standard', 'automotive_design', 1998, #34 ) ;
#13 = DIRECTION ( 'NONE',  ( 1.000000000000000000, 0.000000000000000000, -0.000000000000000000 ) ) ;
#14 = DIRECTION ( 'NONE',  ( 0.000000000000000000, 0.000000000000000000, 1.000000000000000000 ) ) ;
#15 = DIRECTION ( 'NONE',  ( 0.000000000000000000, 0.000000000000000000, 1.000000000000000000 ) ) ;
#16 = DIRECTION ( 'NONE',  ( 1.000000000000000000, 0.000000000000000000, 0.000000000000000000 ) ) ;
#17 = CARTESIAN_POINT ( 'NONE',  ( 0.000000000000000000, 0.000000000000000000, 0.000000000000000000 ) ) ;
#18 = PRODUCT_DEFINITION_CONTEXT ( 'detailed design', #34, 'design' ) ;
#19 = ORIENTED_EDGE ( 'NONE', *, *, #154, .T. ) ;
#20 =( NAMED_UNIT ( * ) SI_UNIT ( $, .STERADIAN. ) SOLID_ANGLE_UNIT ( ) );
#21 = STYLED_ITEM ( 'NONE', ( #86 ), #94 ) ;
#22 = CARTESIAN_POINT ( 'NONE',  ( 0.000000000000000000, 0.000000000000000000, 1.250000000000000000 ) ) ;
#23 =( NAMED_UNIT ( * ) SI_UNIT ( $, .STERADIAN. ) SOLID_ANGLE_UNIT ( ) );
#24 = CIRCLE ( 'NONE', #140, 10.00000000000000000 ) ;
#25 = VECTOR ( 'NONE', #46, 1000.000000000000000 ) ;
#26 = DIRECTION ( 'NONE',  ( 0.000000000000000000, 0.000000000000000000, 1.000000000000000000 ) ) ;
#27 = AXIS2_PLACEMENT_3D ( 'NONE', #22, #205, #37 ) ;
#28 = CARTESIAN_POINT ( 'NONE',  ( 0.000000000000000000, 0.000000000000000000, 0.000000000000000000 ) ) ;
#29 = FACE_OUTER_BOUND ( 'NONE', #126, .T. ) ;
#30 = PRODUCT_DEFINITION_FORMATION_WITH_SPECIFIED_SOURCE ( 'ANY', '', #170, .NOT_KNOWN. ) ;
#31 = DIRECTION ( 'NONE',  ( -0.000000000000000000, -0.000000000000000000, -1.000000000000000000 ) ) ;
#32 = ORIENTED_EDGE ( 'NONE', *, *, #188, .F. ) ;
#33 = VERTEX_POINT ( 'NONE', #51 ) ;
#34 = APPLICATION_CONTEXT ( 'automotive_design' ) ;
#35 = DIRECTION ( 'NONE',  ( -0.000000000000000000, -0.000000000000000000, -1.000000000000000000 ) ) ;
#36 = EDGE_LOOP ( 'NONE', ( #198, #147 ) ) ;
#37 = DIRECTION ( 'NONE',  ( 1.000000000000000000, 0.000000000000000000, 0.000000000000000000 ) ) ;
#38 = ORIENTED_EDGE ( 'NONE', *, *, #64, .T. ) ;
#39 = ORIENTED_EDGE ( 'NONE', *, *, #151, .F. ) ;
#40 = DIRECTION ( 'NONE',  ( -0.000000000000000000, -0.000000000000000000, -1.000000000000000000 ) ) ;
#41 = FILL_AREA_STYLE ('',( #159 ) ) ;
#42 = MECHANICAL_DESIGN_GEOMETRIC_PRESENTATION_REPRESENTATION (  '', ( #191 ), #208 ) ;
#43 = PLANE ( 'NONE',  #189 ) ;
#44 = CARTESIAN_POINT ( 'NONE',  ( 10.00000000000000000, 1.224646799147353256E-15, 1.250000000000000000 ) ) ;
#45 = PRESENTATION_LAYER_ASSIGNMENT (  '', '', ( #21 ) ) ;
#46 = DIRECTION ( 'NONE',  ( -0.000000000000000000, -0.000000000000000000, -1.000000000000000000 ) ) ;
#47 = SHAPE_DEFINITION_REPRESENTATION ( #139, #94 ) ;
#48 = DIRECTION ( 'NONE',  ( -0.000000000000000000, -0.000000000000000000, -1.000000000000000000 ) ) ;
#49 = DIRECTION ( 'NONE',  ( -0.000000000000000000, -0.000000000000000000, -1.000000000000000000 ) ) ;
#50 = EDGE_CURVE ( 'NONE', #209, #1, #176, .T. ) ;
#51 = CARTESIAN_POINT ( 'NONE',  ( 4.200000000000000178, 5.143516556418883914E-16, 1.250000000000000000 ) ) ;
#52 = PRESENTATION_STYLE_ASSIGNMENT (( #9 ) ) ;
#53 = ORIENTED_EDGE ( 'NONE', *, *, #128, .T. ) ;
#54 =( LENGTH_UNIT ( ) NAMED_UNIT ( * ) SI_UNIT ( .MILLI., .METRE. ) );
#55 = VERTEX_POINT ( 'NONE', #82 ) ;
#56 = AXIS2_PLACEMENT_3D ( 'NONE', #130, #65, #197 ) ;
#57 = EDGE_LOOP ( 'NONE', ( #90, #53 ) ) ;
#58 = AXIS2_PLACEMENT_3D ( 'NONE', #106, #35, #87 ) ;
#59 = EDGE_LOOP ( 'NONE', ( #70, #141 ) ) ;
#60 = PLANE ( 'NONE',  #96 ) ;
#61 = DIRECTION ( 'NONE',  ( -1.000000000000000000, 0.000000000000000000, 0.000000000000000000 ) ) ;
#62 = CYLINDRICAL_SURFACE ( 'NONE', #169, 4.200000000000000178 ) ;
#63 = DIRECTION ( 'NONE',  ( 1.000000000000000000, 0.000000000000000000, 0.000000000000000000 ) ) ;
#64 = EDGE_CURVE ( 'NONE', #134, #95, #122, .T. ) ;
#65 = DIRECTION ( 'NONE',  ( -0.000000000000000000, -0.000000000000000000, -1.000000000000000000 ) ) ;
#66 = LINE ( 'NONE', #172, #124 ) ;
#67 = ORIENTED_EDGE ( 'NONE', *, *, #11, .T. ) ;
#68 = CARTESIAN_POINT ( 'NONE',  ( 0.000000000000000000, 0.000000000000000000, 1.250000000000000000 ) ) ;
#69 = PRODUCT_RELATED_PRODUCT_CATEGORY ( 'part', '', ( #170 ) ) ;
#70 = ORIENTED_EDGE ( 'NONE', *, *, #151, .T. ) ;
#71 = DIRECTION ( 'NONE',  ( -1.000000000000000000, 0.000000000000000000, 0.000000000000000000 ) ) ;
#72 = ORIENTED_EDGE ( 'NONE', *, *, #206, .T. ) ;
#73 =( LENGTH_UNIT ( ) NAMED_UNIT ( * ) SI_UNIT ( .MILLI., .METRE. ) );
#74 = AXIS2_PLACEMENT_3D ( 'NONE', #185, #121, #146 ) ;
#75 = ORIENTED_EDGE ( 'NONE', *, *, #77, .F. ) ;
#76 = MECHANICAL_DESIGN_GEOMETRIC_PRESENTATION_REPRESENTATION (  '', ( #21 ), #165 ) ;
#77 = EDGE_CURVE ( 'NONE', #133, #55, #66, .T. ) ;
#78 = DIRECTION ( 'NONE',  ( 0.000000000000000000, 0.000000000000000000, 1.000000000000000000 ) ) ;
#79 = PRODUCT_CONTEXT ( 'NONE', #125, 'mechanical' ) ;
#80 = DIRECTION ( 'NONE',  ( 0.000000000000000000, 0.000000000000000000, 1.000000000000000000 ) ) ;
#81 = CARTESIAN_POINT ( 'NONE',  ( 4.200000000000000178, 5.143516556418883914E-16, 0.000000000000000000 ) ) ;
#82 = CARTESIAN_POINT ( 'NONE',  ( 10.00000000000000000, 1.224646799147353256E-15, 0.000000000000000000 ) ) ;
#83 = ORIENTED_EDGE ( 'NONE', *, *, #154, .F. ) ;
#84 = EDGE_LOOP ( 'NONE', ( #180, #202 ) ) ;
#85 = COLOUR_RGB ( '',0.7529411764705882248, 0.7529411764705882248, 0.7529411764705882248 ) ;
#86 = PRESENTATION_STYLE_ASSIGNMENT (( #116 ) ) ;
#87 = DIRECTION ( 'NONE',  ( -1.000000000000000000, 0.000000000000000000, 0.000000000000000000 ) ) ;
#88 = CARTESIAN_POINT ( 'NONE',  ( -10.00000000000000000, 0.000000000000000000, 0.000000000000000000 ) ) ;
#89 = UNCERTAINTY_MEASURE_WITH_UNIT (LENGTH_MEASURE( 1.000000000000000082E-05 ), #73, 'distance_accuracy_value', 'NONE');
#90 = ORIENTED_EDGE ( 'NONE', *, *, #188, .T. ) ;
#91 =( NAMED_UNIT ( * ) PLANE_ANGLE_UNIT ( ) SI_UNIT ( $, .RADIAN. ) );
#92 = CIRCLE ( 'NONE', #210, 4.200000000000000178 ) ;
#93 = CARTESIAN_POINT ( 'NONE',  ( 0.000000000000000000, 0.000000000000000000, 0.000000000000000000 ) ) ;
#94 = ADVANCED_BREP_SHAPE_REPRESENTATION ( '3403127 964 M8 G20 V4A', ( #193, #138 ), #178 ) ;
#95 = VERTEX_POINT ( 'NONE', #88 ) ;
#96 = AXIS2_PLACEMENT_3D ( 'NONE', #112, #80, #129 ) ;
#97 = EDGE_CURVE ( 'NONE', #55, #95, #196, .T. ) ;
#98 = CARTESIAN_POINT ( 'NONE',  ( -10.00000000000000000, 0.000000000000000000, 1.250000000000000000 ) ) ;
#99 = FACE_OUTER_BOUND ( 'NONE', #137, .T. ) ;
#100 = PRESENTATION_LAYER_ASSIGNMENT (  '', '', ( #191 ) ) ;
#101 = DIRECTION ( 'NONE',  ( 1.000000000000000000, 0.000000000000000000, 0.000000000000000000 ) ) ;
#102 = ORIENTED_EDGE ( 'NONE', *, *, #111, .T. ) ;
#103 = ORIENTED_EDGE ( 'NONE', *, *, #97, .T. ) ;
#104 = SURFACE_STYLE_FILL_AREA ( #41 ) ;
#105 = FILL_AREA_STYLE ('',( #177 ) ) ;
#106 = CARTESIAN_POINT ( 'NONE',  ( 0.000000000000000000, 0.000000000000000000, 1.250000000000000000 ) ) ;
#107 = SURFACE_SIDE_STYLE ('',( #104 ) ) ;
#108 = PRODUCT_DEFINITION ( 'UNKNOWN', '', #30, #18 ) ;
#109 = AXIS2_PLACEMENT_3D ( 'NONE', #175, #78, #16 ) ;
#110 = CYLINDRICAL_SURFACE ( 'NONE', #56, 10.00000000000000000 ) ;
#111 = EDGE_CURVE ( 'NONE', #95, #55, #183, .T. ) ;
#112 = CARTESIAN_POINT ( 'NONE',  ( 0.000000000000000000, 0.000000000000000000, 1.250000000000000000 ) ) ;
#113 = AXIS2_PLACEMENT_3D ( 'NONE', #157, #15, #2 ) ;
#114 = LINE ( 'NONE', #212, #211 ) ;
#115 = ADVANCED_FACE ( 'NONE', ( #163, #120 ), #60, .T. ) ;
#116 = SURFACE_STYLE_USAGE ( .BOTH. , #107 ) ;
#117 = ORIENTED_EDGE ( 'NONE', *, *, #64, .F. ) ;
#118 = CIRCLE ( 'NONE', #109, 4.200000000000000178 ) ;
#119 = SURFACE_SIDE_STYLE ('',( #4 ) ) ;
#120 = FACE_BOUND ( 'NONE', #84, .T. ) ;
#121 = DIRECTION ( 'NONE',  ( 0.000000000000000000, 0.000000000000000000, 1.000000000000000000 ) ) ;
#122 = LINE ( 'NONE', #187, #25 ) ;
#123 = ADVANCED_FACE ( 'NONE', ( #29 ), #149, .T. ) ;
#124 = VECTOR ( 'NONE', #31, 1000.000000000000000 ) ;
#125 = APPLICATION_CONTEXT ( 'automotive_design' ) ;
#126 = EDGE_LOOP ( 'NONE', ( #75, #32, #38, #102 ) ) ;
#127 = ADVANCED_FACE ( 'NONE', ( #5, #182 ), #43, .F. ) ;
#128 = EDGE_CURVE ( 'NONE', #133, #134, #24, .T. ) ;
#129 = DIRECTION ( 'NONE',  ( 1.000000000000000000, 0.000000000000000000, -0.000000000000000000 ) ) ;
#130 = CARTESIAN_POINT ( 'NONE',  ( 0.000000000000000000, 0.000000000000000000, 1.250000000000000000 ) ) ;
#131 = APPLICATION_PROTOCOL_DEFINITION ( 'draft international standard', 'automotive_design', 1998, #125 ) ;
#132 = ORIENTED_EDGE ( 'NONE', *, *, #50, .T. ) ;
#133 = VERTEX_POINT ( 'NONE', #44 ) ;
#134 = VERTEX_POINT ( 'NONE', #98 ) ;
#135 =( NAMED_UNIT ( * ) PLANE_ANGLE_UNIT ( ) SI_UNIT ( $, .RADIAN. ) );
#136 = CIRCLE ( 'NONE', #74, 10.00000000000000000 ) ;
#137 = EDGE_LOOP ( 'NONE', ( #143, #156, #103, #117 ) ) ;
#138 = AXIS2_PLACEMENT_3D ( 'NONE', #155, #14, #63 ) ;
#139 = PRODUCT_DEFINITION_SHAPE ( 'NONE', 'NONE',  #108 ) ;
#140 = AXIS2_PLACEMENT_3D ( 'NONE', #171, #26, #192 ) ;
#141 = ORIENTED_EDGE ( 'NONE', *, *, #10, .T. ) ;
#142 = FACE_OUTER_BOUND ( 'NONE', #184, .T. ) ;
#143 = ORIENTED_EDGE ( 'NONE', *, *, #128, .F. ) ;
#144 = DIRECTION ( 'NONE',  ( -0.000000000000000000, -0.000000000000000000, -1.000000000000000000 ) ) ;
#145 = DIRECTION ( 'NONE',  ( 0.000000000000000000, 0.000000000000000000, 1.000000000000000000 ) ) ;
#146 = DIRECTION ( 'NONE',  ( 1.000000000000000000, 0.000000000000000000, 0.000000000000000000 ) ) ;
#147 = ORIENTED_EDGE ( 'NONE', *, *, #97, .F. ) ;
#148 =( NAMED_UNIT ( * ) PLANE_ANGLE_UNIT ( ) SI_UNIT ( $, .RADIAN. ) );
#149 = CYLINDRICAL_SURFACE ( 'NONE', #58, 10.00000000000000000 ) ;
#150 = DIRECTION ( 'NONE',  ( 0.000000000000000000, 0.000000000000000000, 1.000000000000000000 ) ) ;
#151 = EDGE_CURVE ( 'NONE', #1, #161, #118, .T. ) ;
#152 = ORIENTED_EDGE ( 'NONE', *, *, #10, .F. ) ;
#153 = DIRECTION ( 'NONE',  ( 0.000000000000000000, 0.000000000000000000, 1.000000000000000000 ) ) ;
#154 = EDGE_CURVE ( 'NONE', #33, #161, #114, .T. ) ;
#155 = CARTESIAN_POINT ( 'NONE',  ( 0.000000000000000000, 0.000000000000000000, 0.000000000000000000 ) ) ;
#156 = ORIENTED_EDGE ( 'NONE', *, *, #77, .T. ) ;
#157 = CARTESIAN_POINT ( 'NONE',  ( 0.000000000000000000, 0.000000000000000000, 1.250000000000000000 ) ) ;
#158 = EDGE_LOOP ( 'NONE', ( #72, #19, #39, #8 ) ) ;
#159 = FILL_AREA_STYLE_COLOUR ( '', #207 ) ;
#160 =( NAMED_UNIT ( * ) SI_UNIT ( $, .STERADIAN. ) SOLID_ANGLE_UNIT ( ) );
#161 = VERTEX_POINT ( 'NONE', #81 ) ;
#162 = FACE_OUTER_BOUND ( 'NONE', #158, .T. ) ;
#163 = FACE_OUTER_BOUND ( 'NONE', #57, .T. ) ;
#164 = ADVANCED_FACE ( 'NONE', ( #142 ), #62, .F. ) ;
#165 =( GEOMETRIC_REPRESENTATION_CONTEXT ( 3 ) GLOBAL_UNCERTAINTY_ASSIGNED_CONTEXT ( ( #7 ) ) GLOBAL_UNIT_ASSIGNED_CONTEXT ( ( #54, #148, #160 ) ) REPRESENTATION_CONTEXT ( 'NONE', 'WORKASPACE' ) );
#166 = CARTESIAN_POINT ( 'NONE',  ( 0.000000000000000000, 0.000000000000000000, 0.000000000000000000 ) ) ;
#167 = CIRCLE ( 'NONE', #27, 4.200000000000000178 ) ;
#168 = CYLINDRICAL_SURFACE ( 'NONE', #173, 4.200000000000000178 ) ;
#169 = AXIS2_PLACEMENT_3D ( 'NONE', #68, #49, #61 ) ;
#170 = PRODUCT ( '3403127 964 M8 G20 V4A', '3403127 964 M8 G20 V4A', '', ( #79 ) ) ;
#171 = CARTESIAN_POINT ( 'NONE',  ( 0.000000000000000000, 0.000000000000000000, 1.250000000000000000 ) ) ;
#172 = CARTESIAN_POINT ( 'NONE',  ( 10.00000000000000000, 1.224646799147353256E-15, 1.250000000000000000 ) ) ;
#173 = AXIS2_PLACEMENT_3D ( 'NONE', #6, #40, #71 ) ;
#174 = ADVANCED_FACE ( 'NONE', ( #99 ), #110, .T. ) ;
#175 = CARTESIAN_POINT ( 'NONE',  ( 0.000000000000000000, 0.000000000000000000, 0.000000000000000000 ) ) ;
#176 = LINE ( 'NONE', #200, #213 ) ;
#177 = FILL_AREA_STYLE_COLOUR ( '', #85 ) ;
#178 =( GEOMETRIC_REPRESENTATION_CONTEXT ( 3 ) GLOBAL_UNCERTAINTY_ASSIGNED_CONTEXT ( ( #89 ) ) GLOBAL_UNIT_ASSIGNED_CONTEXT ( ( #73, #91, #20 ) ) REPRESENTATION_CONTEXT ( 'NONE', 'WORKASPACE' ) );
#179 = UNCERTAINTY_MEASURE_WITH_UNIT (LENGTH_MEASURE( 1.000000000000000082E-05 ), #3, 'distance_accuracy_value', 'NONE');
#180 = ORIENTED_EDGE ( 'NONE', *, *, #206, .F. ) ;
#181 = CIRCLE ( 'NONE', #113, 4.200000000000000178 ) ;
#182 = FACE_BOUND ( 'NONE', #59, .T. ) ;
#183 = CIRCLE ( 'NONE', #204, 10.00000000000000000 ) ;
#184 = EDGE_LOOP ( 'NONE', ( #83, #67, #132, #152 ) ) ;
#185 = CARTESIAN_POINT ( 'NONE',  ( 0.000000000000000000, 0.000000000000000000, 1.250000000000000000 ) ) ;
#186 = DIRECTION ( 'NONE',  ( 1.000000000000000000, 0.000000000000000000, 0.000000000000000000 ) ) ;
#187 = CARTESIAN_POINT ( 'NONE',  ( -10.00000000000000000, 0.000000000000000000, 1.250000000000000000 ) ) ;
#188 = EDGE_CURVE ( 'NONE', #134, #133, #136, .T. ) ;
#189 = AXIS2_PLACEMENT_3D ( 'NONE', #28, #153, #13 ) ;
#190 = DIRECTION ( 'NONE',  ( 0.000000000000000000, 0.000000000000000000, 1.000000000000000000 ) ) ;
#191 = STYLED_ITEM ( 'NONE', ( #52 ), #193 ) ;
#192 = DIRECTION ( 'NONE',  ( 1.000000000000000000, 0.000000000000000000, 0.000000000000000000 ) ) ;
#193 = MANIFOLD_SOLID_BREP ( 'Aufsatz-Linear austragen1', #195 ) ;
#194 = ADVANCED_FACE ( 'NONE', ( #162 ), #168, .F. ) ;
#195 = CLOSED_SHELL ( 'NONE', ( #194, #174, #115, #127, #123, #164 ) ) ;
#196 = CIRCLE ( 'NONE', #214, 10.00000000000000000 ) ;
#197 = DIRECTION ( 'NONE',  ( -1.000000000000000000, 0.000000000000000000, 0.000000000000000000 ) ) ;
#198 = ORIENTED_EDGE ( 'NONE', *, *, #111, .F. ) ;
#199 = CARTESIAN_POINT ( 'NONE',  ( -4.200000000000000178, 0.000000000000000000, 0.000000000000000000 ) ) ;
#200 = CARTESIAN_POINT ( 'NONE',  ( -4.200000000000000178, 0.000000000000000000, 1.250000000000000000 ) ) ;
#201 = CARTESIAN_POINT ( 'NONE',  ( -4.200000000000000178, 0.000000000000000000, 1.250000000000000000 ) ) ;
#202 = ORIENTED_EDGE ( 'NONE', *, *, #11, .F. ) ;
#203 = DIRECTION ( 'NONE',  ( 1.000000000000000000, 0.000000000000000000, 0.000000000000000000 ) ) ;
#204 = AXIS2_PLACEMENT_3D ( 'NONE', #166, #190, #203 ) ;
#205 = DIRECTION ( 'NONE',  ( 0.000000000000000000, 0.000000000000000000, 1.000000000000000000 ) ) ;
#206 = EDGE_CURVE ( 'NONE', #209, #33, #167, .T. ) ;
#207 = COLOUR_RGB ( '',0.7529411764705882248, 0.7529411764705882248, 0.7529411764705882248 ) ;
#208 =( GEOMETRIC_REPRESENTATION_CONTEXT ( 3 ) GLOBAL_UNCERTAINTY_ASSIGNED_CONTEXT ( ( #179 ) ) GLOBAL_UNIT_ASSIGNED_CONTEXT ( ( #3, #135, #23 ) ) REPRESENTATION_CONTEXT ( 'NONE', 'WORKASPACE' ) );
#209 = VERTEX_POINT ( 'NONE', #201 ) ;
#210 = AXIS2_PLACEMENT_3D ( 'NONE', #17, #145, #101 ) ;
#211 = VECTOR ( 'NONE', #144, 1000.000000000000000 ) ;
#212 = CARTESIAN_POINT ( 'NONE',  ( 4.200000000000000178, 5.143516556418883914E-16, 1.250000000000000000 ) ) ;
#213 = VECTOR ( 'NONE', #48, 1000.000000000000000 ) ;
#214 = AXIS2_PLACEMENT_3D ( 'NONE', #93, #150, #186 ) ;
ENDSEC;
END-ISO-10303-21;
