ISO-10303-21;
HEADER;
FILE_DESCRIPTION (( 'STEP AP214' ),
    '1' );
FILE_NAME ('3403130.stp',
    '2024-05-02T15:26:49',
    ( '' ),
    ( '' ),
    'SwSTEP 2.0',
    'SolidWorks 2022',
    '' );
FILE_SCHEMA (( 'AUTOMOTIVE_DESIGN' ));
ENDSEC;

DATA;
#1 = APPLICATION_PROTOCOL_DEFINITION ( 'draft international standard', 'automotive_design', 1998, #51 ) ;
#2 = AXIS2_PLACEMENT_3D ( 'NONE', #128, #35, #120 ) ;
#3 = ORIENTED_EDGE ( 'NONE', *, *, #60, .F. ) ;
#4 = CARTESIAN_POINT ( 'NONE',  ( 0.000000000000000000, 0.000000000000000000, 0.000000000000000000 ) ) ;
#5 = SURFACE_SIDE_STYLE ('',( #15 ) ) ;
#6 =( NAMED_UNIT ( * ) PLANE_ANGLE_UNIT ( ) SI_UNIT ( $, .RADIAN. ) );
#7 = CARTESIAN_POINT ( 'NONE',  ( 12.50000000000000000, 0.000000000000000000, 1.250000000000000000 ) ) ;
#8 = DIRECTION ( 'NONE',  ( 1.000000000000000000, 0.000000000000000000, 0.000000000000000000 ) ) ;
#9 = CARTESIAN_POINT ( 'NONE',  ( 0.000000000000000000, 0.000000000000000000, 1.250000000000000000 ) ) ;
#10 =( LENGTH_UNIT ( ) NAMED_UNIT ( * ) SI_UNIT ( .MILLI., .METRE. ) );
#11 = DIRECTION ( 'NONE',  ( 0.000000000000000000, 0.000000000000000000, 1.000000000000000000 ) ) ;
#12 = EDGE_LOOP ( 'NONE', ( #58 ) ) ;
#13 = AXIS2_PLACEMENT_3D ( 'NONE', #130, #96, #131 ) ;
#14 = EDGE_LOOP ( 'NONE', ( #69 ) ) ;
#15 = SURFACE_STYLE_FILL_AREA ( #89 ) ;
#16 = CARTESIAN_POINT ( 'NONE',  ( 0.000000000000000000, 0.000000000000000000, 1.250000000000000000 ) ) ;
#17 = STYLED_ITEM ( 'NONE', ( #73 ), #40 ) ;
#18 = VERTEX_POINT ( 'NONE', #64 ) ;
#19 = SURFACE_STYLE_FILL_AREA ( #115 ) ;
#20 = EDGE_CURVE ( 'NONE', #70, #70, #110, .T. ) ;
#21 = UNCERTAINTY_MEASURE_WITH_UNIT (LENGTH_MEASURE( 1.000000000000000082E-05 ), #10, 'distance_accuracy_value', 'NONE');
#22 = DIRECTION ( 'NONE',  ( 1.000000000000000000, 0.000000000000000000, 0.000000000000000000 ) ) ;
#23 = CLOSED_SHELL ( 'NONE', ( #42, #87, #127, #97 ) ) ;
#24 = AXIS2_PLACEMENT_3D ( 'NONE', #37, #106, #22 ) ;
#25 = ORIENTED_EDGE ( 'NONE', *, *, #84, .F. ) ;
#26 = SURFACE_STYLE_USAGE ( .BOTH. , #5 ) ;
#27 = CIRCLE ( 'NONE', #2, 12.50000000000000000 ) ;
#28 = UNCERTAINTY_MEASURE_WITH_UNIT (LENGTH_MEASURE( 1.000000000000000082E-05 ), #36, 'distance_accuracy_value', 'NONE');
#29 =( NAMED_UNIT ( * ) SI_UNIT ( $, .STERADIAN. ) SOLID_ANGLE_UNIT ( ) );
#30 = PRODUCT_DEFINITION_SHAPE ( 'NONE', 'NONE',  #52 ) ;
#31 = PRODUCT_DEFINITION_FORMATION_WITH_SPECIFIED_SOURCE ( 'ANY', '', #107, .NOT_KNOWN. ) ;
#32 = EDGE_CURVE ( 'NONE', #121, #121, #27, .T. ) ;
#33 =( NAMED_UNIT ( * ) PLANE_ANGLE_UNIT ( ) SI_UNIT ( $, .RADIAN. ) );
#34 = EDGE_LOOP ( 'NONE', ( #68 ) ) ;
#35 = DIRECTION ( 'NONE',  ( 0.000000000000000000, 0.000000000000000000, 1.000000000000000000 ) ) ;
#36 =( LENGTH_UNIT ( ) NAMED_UNIT ( * ) SI_UNIT ( .MILLI., .METRE. ) );
#37 = CARTESIAN_POINT ( 'NONE',  ( 0.000000000000000000, 0.000000000000000000, 0.000000000000000000 ) ) ;
#38 = AXIS2_PLACEMENT_3D ( 'NONE', #16, #47, #56 ) ;
#39 = CARTESIAN_POINT ( 'NONE',  ( 4.200000000000000178, 0.000000000000000000, 0.000000000000000000 ) ) ;
#40 = ADVANCED_BREP_SHAPE_REPRESENTATION ( '3403130', ( #48, #86 ), #112 ) ;
#41 = DIRECTION ( 'NONE',  ( -0.000000000000000000, -0.000000000000000000, -1.000000000000000000 ) ) ;
#42 = ADVANCED_FACE ( 'NONE', ( #129, #59 ), #111, .T. ) ;
#43 = AXIS2_PLACEMENT_3D ( 'NONE', #123, #63, #8 ) ;
#44 = COLOUR_RGB ( '',0.7529411764705882248, 0.7529411764705882248, 0.7529411764705882248 ) ;
#45 = DIRECTION ( 'NONE',  ( 1.000000000000000000, 0.000000000000000000, 0.000000000000000000 ) ) ;
#46 = ORIENTED_EDGE ( 'NONE', *, *, #32, .F. ) ;
#47 = DIRECTION ( 'NONE',  ( 0.000000000000000000, 0.000000000000000000, 1.000000000000000000 ) ) ;
#48 = MANIFOLD_SOLID_BREP ( 'Aufsatz-Linear austragen1', #23 ) ;
#49 = EDGE_LOOP ( 'NONE', ( #80 ) ) ;
#50 = CARTESIAN_POINT ( 'NONE',  ( 0.000000000000000000, 0.000000000000000000, 1.250000000000000000 ) ) ;
#51 = APPLICATION_CONTEXT ( 'automotive_design' ) ;
#52 = PRODUCT_DEFINITION ( 'UNKNOWN', '', #31, #72 ) ;
#53 =( NAMED_UNIT ( * ) SI_UNIT ( $, .STERADIAN. ) SOLID_ANGLE_UNIT ( ) );
#54 = CYLINDRICAL_SURFACE ( 'NONE', #91, 12.50000000000000000 ) ;
#55 = DIRECTION ( 'NONE',  ( -1.000000000000000000, 0.000000000000000000, 0.000000000000000000 ) ) ;
#56 = DIRECTION ( 'NONE',  ( 1.000000000000000000, 0.000000000000000000, 0.000000000000000000 ) ) ;
#57 = MECHANICAL_DESIGN_GEOMETRIC_PRESENTATION_REPRESENTATION (  '', ( #100 ), #133 ) ;
#58 = ORIENTED_EDGE ( 'NONE', *, *, #60, .T. ) ;
#59 = FACE_BOUND ( 'NONE', #34, .T. ) ;
#60 = EDGE_CURVE ( 'NONE', #65, #65, #124, .T. ) ;
#61 = FILL_AREA_STYLE_COLOUR ( '', #117 ) ;
#62 = PRESENTATION_LAYER_ASSIGNMENT (  '', '', ( #17 ) ) ;
#63 = DIRECTION ( 'NONE',  ( 0.000000000000000000, 0.000000000000000000, 1.000000000000000000 ) ) ;
#64 = CARTESIAN_POINT ( 'NONE',  ( 12.50000000000000000, 0.000000000000000000, 0.000000000000000000 ) ) ;
#65 = VERTEX_POINT ( 'NONE', #39 ) ;
#66 = CYLINDRICAL_SURFACE ( 'NONE', #95, 4.200000000000000178 ) ;
#67 = AXIS2_PLACEMENT_3D ( 'NONE', #50, #101, #125 ) ;
#68 = ORIENTED_EDGE ( 'NONE', *, *, #20, .F. ) ;
#69 = ORIENTED_EDGE ( 'NONE', *, *, #84, .T. ) ;
#70 = VERTEX_POINT ( 'NONE', #75 ) ;
#71 = DIRECTION ( 'NONE',  ( -1.000000000000000000, 0.000000000000000000, 0.000000000000000000 ) ) ;
#72 = PRODUCT_DEFINITION_CONTEXT ( 'detailed design', #51, 'design' ) ;
#73 = PRESENTATION_STYLE_ASSIGNMENT (( #122 ) ) ;
#74 = FILL_AREA_STYLE_COLOUR ( '', #44 ) ;
#75 = CARTESIAN_POINT ( 'NONE',  ( 4.200000000000000178, 0.000000000000000000, 1.250000000000000000 ) ) ;
#76 = APPLICATION_CONTEXT ( 'automotive_design' ) ;
#77 = PRODUCT_CONTEXT ( 'NONE', #76, 'mechanical' ) ;
#78 = CIRCLE ( 'NONE', #43, 12.50000000000000000 ) ;
#79 = EDGE_LOOP ( 'NONE', ( #3 ) ) ;
#80 = ORIENTED_EDGE ( 'NONE', *, *, #32, .T. ) ;
#81 = EDGE_LOOP ( 'NONE', ( #126 ) ) ;
#82 = FACE_OUTER_BOUND ( 'NONE', #81, .T. ) ;
#83 = PLANE ( 'NONE',  #13 ) ;
#84 = EDGE_CURVE ( 'NONE', #18, #18, #78, .T. ) ;
#85 =( LENGTH_UNIT ( ) NAMED_UNIT ( * ) SI_UNIT ( .MILLI., .METRE. ) );
#86 = AXIS2_PLACEMENT_3D ( 'NONE', #4, #11, #45 ) ;
#87 = ADVANCED_FACE ( 'NONE', ( #116, #102 ), #83, .F. ) ;
#88 = EDGE_LOOP ( 'NONE', ( #46 ) ) ;
#89 = FILL_AREA_STYLE ('',( #61 ) ) ;
#90 = FACE_OUTER_BOUND ( 'NONE', #88, .T. ) ;
#91 = AXIS2_PLACEMENT_3D ( 'NONE', #134, #41, #55 ) ;
#92 = FACE_OUTER_BOUND ( 'NONE', #79, .T. ) ;
#93 = APPLICATION_PROTOCOL_DEFINITION ( 'draft international standard', 'automotive_design', 1998, #76 ) ;
#94 =( GEOMETRIC_REPRESENTATION_CONTEXT ( 3 ) GLOBAL_UNCERTAINTY_ASSIGNED_CONTEXT ( ( #105 ) ) GLOBAL_UNIT_ASSIGNED_CONTEXT ( ( #85, #33, #98 ) ) REPRESENTATION_CONTEXT ( 'NONE', 'WORKASPACE' ) );
#95 = AXIS2_PLACEMENT_3D ( 'NONE', #9, #103, #71 ) ;
#96 = DIRECTION ( 'NONE',  ( 0.000000000000000000, 0.000000000000000000, 1.000000000000000000 ) ) ;
#97 = ADVANCED_FACE ( 'NONE', ( #82, #92 ), #66, .F. ) ;
#98 =( NAMED_UNIT ( * ) SI_UNIT ( $, .STERADIAN. ) SOLID_ANGLE_UNIT ( ) );
#99 = SHAPE_DEFINITION_REPRESENTATION ( #30, #40 ) ;
#100 = STYLED_ITEM ( 'NONE', ( #109 ), #48 ) ;
#101 = DIRECTION ( 'NONE',  ( 0.000000000000000000, 0.000000000000000000, 1.000000000000000000 ) ) ;
#102 = FACE_BOUND ( 'NONE', #12, .T. ) ;
#103 = DIRECTION ( 'NONE',  ( -0.000000000000000000, -0.000000000000000000, -1.000000000000000000 ) ) ;
#104 = SURFACE_SIDE_STYLE ('',( #19 ) ) ;
#105 = UNCERTAINTY_MEASURE_WITH_UNIT (LENGTH_MEASURE( 1.000000000000000082E-05 ), #85, 'distance_accuracy_value', 'NONE');
#106 = DIRECTION ( 'NONE',  ( 0.000000000000000000, 0.000000000000000000, 1.000000000000000000 ) ) ;
#107 = PRODUCT ( '3403130', '3403130', '', ( #77 ) ) ;
#108 = PRODUCT_RELATED_PRODUCT_CATEGORY ( 'part', '', ( #107 ) ) ;
#109 = PRESENTATION_STYLE_ASSIGNMENT (( #26 ) ) ;
#110 = CIRCLE ( 'NONE', #38, 4.200000000000000178 ) ;
#111 = PLANE ( 'NONE',  #67 ) ;
#112 =( GEOMETRIC_REPRESENTATION_CONTEXT ( 3 ) GLOBAL_UNCERTAINTY_ASSIGNED_CONTEXT ( ( #21 ) ) GLOBAL_UNIT_ASSIGNED_CONTEXT ( ( #10, #114, #29 ) ) REPRESENTATION_CONTEXT ( 'NONE', 'WORKASPACE' ) );
#113 = MECHANICAL_DESIGN_GEOMETRIC_PRESENTATION_REPRESENTATION (  '', ( #17 ), #94 ) ;
#114 =( NAMED_UNIT ( * ) PLANE_ANGLE_UNIT ( ) SI_UNIT ( $, .RADIAN. ) );
#115 = FILL_AREA_STYLE ('',( #74 ) ) ;
#116 = FACE_OUTER_BOUND ( 'NONE', #119, .T. ) ;
#117 = COLOUR_RGB ( '',0.7529411764705882248, 0.7529411764705882248, 0.7529411764705882248 ) ;
#118 = PRESENTATION_LAYER_ASSIGNMENT (  '', '', ( #100 ) ) ;
#119 = EDGE_LOOP ( 'NONE', ( #25 ) ) ;
#120 = DIRECTION ( 'NONE',  ( 1.000000000000000000, 0.000000000000000000, 0.000000000000000000 ) ) ;
#121 = VERTEX_POINT ( 'NONE', #7 ) ;
#122 = SURFACE_STYLE_USAGE ( .BOTH. , #104 ) ;
#123 = CARTESIAN_POINT ( 'NONE',  ( 0.000000000000000000, 0.000000000000000000, 0.000000000000000000 ) ) ;
#124 = CIRCLE ( 'NONE', #24, 4.200000000000000178 ) ;
#125 = DIRECTION ( 'NONE',  ( 1.000000000000000000, 0.000000000000000000, -0.000000000000000000 ) ) ;
#126 = ORIENTED_EDGE ( 'NONE', *, *, #20, .T. ) ;
#127 = ADVANCED_FACE ( 'NONE', ( #90, #132 ), #54, .T. ) ;
#128 = CARTESIAN_POINT ( 'NONE',  ( 0.000000000000000000, 0.000000000000000000, 1.250000000000000000 ) ) ;
#129 = FACE_OUTER_BOUND ( 'NONE', #49, .T. ) ;
#130 = CARTESIAN_POINT ( 'NONE',  ( 0.000000000000000000, 0.000000000000000000, 0.000000000000000000 ) ) ;
#131 = DIRECTION ( 'NONE',  ( 1.000000000000000000, 0.000000000000000000, -0.000000000000000000 ) ) ;
#132 = FACE_OUTER_BOUND ( 'NONE', #14, .T. ) ;
#133 =( GEOMETRIC_REPRESENTATION_CONTEXT ( 3 ) GLOBAL_UNCERTAINTY_ASSIGNED_CONTEXT ( ( #28 ) ) GLOBAL_UNIT_ASSIGNED_CONTEXT ( ( #36, #6, #53 ) ) REPRESENTATION_CONTEXT ( 'NONE', 'WORKASPACE' ) );
#134 = CARTESIAN_POINT ( 'NONE',  ( 0.000000000000000000, 0.000000000000000000, 1.250000000000000000 ) ) ;
ENDSEC;
END-ISO-10303-21;
