ISO-10303-21;
HEADER;
FILE_DESCRIPTION (( 'STEP AP214' ),
    '1' );
FILE_NAME ('3405109.STEP',
    '2021-01-08T10:30:49',
    ( '' ),
    ( '' ),
    'SwSTEP 2.0',
    'SolidWorks 2020',
    '' );
FILE_SCHEMA (( 'AUTOMOTIVE_DESIGN' ));
ENDSEC;

DATA;
#1 = ORIENTED_EDGE ( 'NONE', *, *, #220, .F. ) ;
#2 = ORIENTED_EDGE ( 'NONE', *, *, #123, .F. ) ;
#3 = APPLICATION_CONTEXT ( 'automotive_design' ) ;
#4 = SHAPE_DEFINITION_REPRESENTATION ( #275, #248 ) ;
#5 = ORIENTED_EDGE ( 'NONE', *, *, #159, .F. ) ;
#6 = AXIS2_PLACEMENT_3D ( 'NONE', #286, #61, #215 ) ;
#7 = SURFACE_STYLE_FILL_AREA ( #9 ) ;
#8 = ORIENTED_EDGE ( 'NONE', *, *, #87, .F. ) ;
#9 = FILL_AREA_STYLE ('',( #89 ) ) ;
#10 = ORIENTED_EDGE ( 'NONE', *, *, #51, .F. ) ;
#11 = CARTESIAN_POINT ( 'NONE',  ( -1.746221540166077002, -0.4500000000000000666, 5.320479437356026686 ) ) ;
#12 = CARTESIAN_POINT ( 'NONE',  ( -0.2379016339672813674, -0.4500000000000000666, 5.135046973124016034 ) ) ;
#13 = VECTOR ( 'NONE', #166, 1000.000000000000000 ) ;
#14 = DIRECTION ( 'NONE',  ( 0.0000000000000000000, 1.000000000000000000, 0.0000000000000000000 ) ) ;
#15 = FACE_OUTER_BOUND ( 'NONE', #111, .T. ) ;
#16 = STYLED_ITEM ( 'NONE', ( #58 ), #85 ) ;
#17 = FILL_AREA_STYLE ('',( #230 ) ) ;
#18 = EDGE_CURVE ( 'NONE', #91, #113, #23, .T. ) ;
#19 = DIRECTION ( 'NONE',  ( -1.000000000000000000, -0.0000000000000000000, -0.0000000000000000000 ) ) ;
#20 = CARTESIAN_POINT ( 'NONE',  ( -34.92499999999994742, 0.4500000000000000111, 5.080108266562829655 ) ) ;
#21 = DIRECTION ( 'NONE',  ( -1.000000000000000000, -0.0000000000000000000, -0.0000000000000000000 ) ) ;
#22 = CARTESIAN_POINT ( 'NONE',  ( -1.300000000001472200, -0.4500000000000000111, 5.080108266550463547 ) ) ;
#23 = B_SPLINE_CURVE_WITH_KNOTS ( 'NONE', 3,
 ( #54, #95, #75, #178, #25, #251 ),
 .UNSPECIFIED., .F., .F.,
 ( 4, 2, 4 ),
 ( 0.002469679122506493029, 0.002860932798157560068, 0.003252186473808626674 ),
 .UNSPECIFIED. ) ;
#24 = DIRECTION ( 'NONE',  ( 1.000000000000000000, 0.0000000000000000000, 0.0000000000000000000 ) ) ;
#25 = CARTESIAN_POINT ( 'NONE',  ( -0.3692168351016783534, 0.4500000000000000111, 5.080108266562820774 ) ) ;
#26 =( NAMED_UNIT ( * ) SI_UNIT ( $, .STERADIAN. ) SOLID_ANGLE_UNIT ( ) );
#27 = EDGE_LOOP ( 'NONE', ( #195, #148, #272, #52 ) ) ;
#28 = VECTOR ( 'NONE', #261, 1000.000000000000000 ) ;
#29 = UNCERTAINTY_MEASURE_WITH_UNIT (LENGTH_MEASURE( 1.000000000000000082E-05 ), #151, 'distance_accuracy_value', 'NONE');
#30 = PRODUCT_CONTEXT ( 'NONE', #3, 'mechanical' ) ;
#31 = ORIENTED_EDGE ( 'NONE', *, *, #142, .F. ) ;
#32 = VERTEX_POINT ( 'NONE', #221 ) ;
#33 = VECTOR ( 'NONE', #214, 1000.000000000000000 ) ;
#34 = EDGE_LOOP ( 'NONE', ( #201, #153, #1, #203 ) ) ;
#35 = B_SPLINE_CURVE_WITH_KNOTS ( 'NONE', 3,
 ( #210, #179, #11, #81, #240, #22 ),
 .UNSPECIFIED., .F., .F.,
 ( 4, 2, 4 ),
 ( 0.002577326855800998219, 0.002968581214551092255, 0.003359835573301186290 ),
 .UNSPECIFIED. ) ;
#36 = FACE_OUTER_BOUND ( 'NONE', #135, .T. ) ;
#37 = SURFACE_SIDE_STYLE ('',( #183 ) ) ;
#38 = COLOUR_RGB ( '',0.7764705882352941346, 0.7568627450980391913, 0.7372549019607843590 ) ;
#39 = DIRECTION ( 'NONE',  ( -1.000000000000000000, -0.0000000000000000000, -0.0000000000000000000 ) ) ;
#40 = DIRECTION ( 'NONE',  ( 0.0000000000000000000, 0.0000000000000000000, 1.000000000000000000 ) ) ;
#41 = CARTESIAN_POINT ( 'NONE',  ( -1.800000000000002931, 0.4500000000000007327, 9.038805230781333577 ) ) ;
#42 = DIRECTION ( 'NONE',  ( 0.0000000000000000000, 0.0000000000000000000, 1.000000000000000000 ) ) ;
#43 = CARTESIAN_POINT ( 'NONE',  ( -1.300000000001472200, -0.4500000000000000111, 5.080108266550463547 ) ) ;
#44 = CARTESIAN_POINT ( 'NONE',  ( 0.0000000000000000000, 0.0000000000000000000, 0.0000000000000000000 ) ) ;
#45 = CARTESIAN_POINT ( 'NONE',  ( -1.799999999999999600, 9.050000000000000711, 0.0000000000000000000 ) ) ;
#46 = DIRECTION ( 'NONE',  ( 0.0000000000000000000, 0.0000000000000000000, -1.000000000000000000 ) ) ;
#47 = ORIENTED_EDGE ( 'NONE', *, *, #66, .T. ) ;
#48 = ORIENTED_EDGE ( 'NONE', *, *, #106, .T. ) ;
#49 = AXIS2_PLACEMENT_3D ( 'NONE', #225, #112, #24 ) ;
#50 =( GEOMETRIC_REPRESENTATION_CONTEXT ( 3 ) GLOBAL_UNCERTAINTY_ASSIGNED_CONTEXT ( ( #197 ) ) GLOBAL_UNIT_ASSIGNED_CONTEXT ( ( #149, #267, #26 ) ) REPRESENTATION_CONTEXT ( 'NONE', 'WORKASPACE' ) );
#51 = EDGE_CURVE ( 'NONE', #94, #91, #109, .T. ) ;
#52 = ORIENTED_EDGE ( 'NONE', *, *, #78, .T. ) ;
#53 = DIRECTION ( 'NONE',  ( 1.000000000000000000, 0.0000000000000000000, 0.0000000000000000000 ) ) ;
#54 = CARTESIAN_POINT ( 'NONE',  ( 0.0000000000000000000, 0.4500000000000000111, 5.581890360800719542 ) ) ;
#55 = VERTEX_POINT ( 'NONE', #76 ) ;
#56 = CARTESIAN_POINT ( 'NONE',  ( -34.92499999999994742, 0.4500000000000000111, 9.038805230781333577 ) ) ;
#57 = AXIS2_PLACEMENT_3D ( 'NONE', #235, #120, #158 ) ;
#58 = PRESENTATION_STYLE_ASSIGNMENT (( #204 ) ) ;
#59 = CARTESIAN_POINT ( 'NONE',  ( 0.0000000000000000000, -0.4500000000000000111, 0.0000000000000000000 ) ) ;
#60 = DIRECTION ( 'NONE',  ( 0.0000000000000000000, 0.0000000000000000000, 1.000000000000000000 ) ) ;
#61 = DIRECTION ( 'NONE',  ( -1.000000000000000000, 0.0000000000000000000, -0.0000000000000000000 ) ) ;
#62 = AXIS2_PLACEMENT_3D ( 'NONE', #126, #217, #168 ) ;
#63 = FACE_OUTER_BOUND ( 'NONE', #27, .T. ) ;
#64 = CARTESIAN_POINT ( 'NONE',  ( -1.800000000000002931, 0.0000000000000000000, 0.0000000000000000000 ) ) ;
#65 = CARTESIAN_POINT ( 'NONE',  ( -0.5000000000000004441, 0.0000000000000000000, 0.0000000000000000000 ) ) ;
#66 = EDGE_CURVE ( 'NONE', #72, #71, #140, .T. ) ;
#67 = EDGE_CURVE ( 'NONE', #91, #69, #101, .T. ) ;
#68 = PRESENTATION_STYLE_ASSIGNMENT (( #269 ) ) ;
#69 = VERTEX_POINT ( 'NONE', #234 ) ;
#70 = PRODUCT_DEFINITION_CONTEXT ( 'detailed design', #241, 'design' ) ;
#71 = VERTEX_POINT ( 'NONE', #155 ) ;
#72 = VERTEX_POINT ( 'NONE', #257 ) ;
#73 = MECHANICAL_DESIGN_GEOMETRIC_PRESENTATION_REPRESENTATION (  '', ( #191 ), #252 ) ;
#74 = ORIENTED_EDGE ( 'NONE', *, *, #186, .F. ) ;
#75 = CARTESIAN_POINT ( 'NONE',  ( -0.05286823777661218970, 0.4500000000000000666, 5.321250448573249692 ) ) ;
#76 = CARTESIAN_POINT ( 'NONE',  ( -0.5000000000000004441, -0.4500000000000000111, 5.080108266562829655 ) ) ;
#77 = DIRECTION ( 'NONE',  ( -1.000000000000000000, -0.0000000000000000000, -0.0000000000000000000 ) ) ;
#78 = EDGE_CURVE ( 'NONE', #55, #69, #218, .T. ) ;
#79 = AXIS2_PLACEMENT_3D ( 'NONE', #136, #14, #139 ) ;
#80 =( NAMED_UNIT ( * ) SI_UNIT ( $, .STERADIAN. ) SOLID_ANGLE_UNIT ( ) );
#81 = CARTESIAN_POINT ( 'NONE',  ( -1.562241063584922651, -0.4500000000000000666, 5.135108428033079875 ) ) ;
#82 = FACE_OUTER_BOUND ( 'NONE', #93, .T. ) ;
#83 = CIRCLE ( 'NONE', #283, 5.100000000000000533 ) ;
#84 = DIRECTION ( 'NONE',  ( -1.000000000000000000, -0.0000000000000000000, -0.0000000000000000000 ) ) ;
#85 = MANIFOLD_SOLID_BREP ( 'Gap', #228 ) ;
#86 = CARTESIAN_POINT ( 'NONE',  ( -34.92499999999994742, -0.4500000000000000111, 5.080108266562829655 ) ) ;
#87 = EDGE_CURVE ( 'NONE', #94, #132, #117, .T. ) ;
#88 = CARTESIAN_POINT ( 'NONE',  ( -1.300000000000002487, 0.0000000000000000000, 0.0000000000000000000 ) ) ;
#89 = FILL_AREA_STYLE_COLOUR ( '', #38 ) ;
#90 = CARTESIAN_POINT ( 'NONE',  ( 0.0000000000000000000, 0.4500000000000000111, 9.231000000000001648 ) ) ;
#91 = VERTEX_POINT ( 'NONE', #138 ) ;
#92 = CIRCLE ( 'NONE', #242, 5.099999999999999645 ) ;
#93 = EDGE_LOOP ( 'NONE', ( #8, #116, #74, #31 ) ) ;
#94 = VERTEX_POINT ( 'NONE', #255 ) ;
#95 = CARTESIAN_POINT ( 'NONE',  ( 1.020759404736157023E-14, 0.4500000000000000111, 5.451183292915594336 ) ) ;
#96 = ADVANCED_FACE ( 'NONE', ( #15 ), #160, .T. ) ;
#97 = CARTESIAN_POINT ( 'NONE',  ( -0.3684082499287258394, -0.4500000000000000111, 5.080108266562828767 ) ) ;
#98 = AXIS2_PLACEMENT_3D ( 'NONE', #44, #145, #212 ) ;
#99 = CARTESIAN_POINT ( 'NONE',  ( -1.560826082238853996, 0.4500000000000000666, 5.133840309279160685 ) ) ;
#100 = CARTESIAN_POINT ( 'NONE',  ( -1.800000000000000044, 0.4500000000000000111, 5.581890360800719542 ) ) ;
#101 = CIRCLE ( 'NONE', #264, 5.599999999999998757 ) ;
#102 = CARTESIAN_POINT ( 'NONE',  ( -1.799999999999996048, 0.0000000000000000000, 0.0000000000000000000 ) ) ;
#103 = CARTESIAN_POINT ( 'NONE',  ( -1.800000000000000044, -0.4500000000000000111, 9.038805230781333577 ) ) ;
#104 = CARTESIAN_POINT ( 'NONE',  ( -34.92499999999994742, 0.0000000000000000000, 0.0000000000000000000 ) ) ;
#105 = DIRECTION ( 'NONE',  ( 0.0000000000000000000, 0.0000000000000000000, 1.000000000000000000 ) ) ;
#106 = EDGE_CURVE ( 'NONE', #69, #246, #256, .T. ) ;
#107 = ADVANCED_FACE ( 'NONE', ( #36 ), #119, .T. ) ;
#108 = LINE ( 'NONE', #162, #114 ) ;
#109 = LINE ( 'NONE', #90, #184 ) ;
#110 = PRESENTATION_LAYER_ASSIGNMENT (  '', '', ( #191 ) ) ;
#111 = EDGE_LOOP ( 'NONE', ( #249, #265, #226, #250, #245, #10 ) ) ;
#112 = DIRECTION ( 'NONE',  ( 0.0000000000000000000, 0.0000000000000000000, 1.000000000000000000 ) ) ;
#113 = VERTEX_POINT ( 'NONE', #121 ) ;
#114 = VECTOR ( 'NONE', #192, 1000.000000000000000 ) ;
#115 = ORIENTED_EDGE ( 'NONE', *, *, #123, .T. ) ;
#116 = ORIENTED_EDGE ( 'NONE', *, *, #279, .T. ) ;
#117 = LINE ( 'NONE', #56, #211 ) ;
#118 = CARTESIAN_POINT ( 'NONE',  ( -5.607358110823468245E-16, -0.4500000000000000111, 5.450040659342415772 ) ) ;
#119 = PLANE ( 'NONE',  #79 ) ;
#120 = DIRECTION ( 'NONE',  ( 0.0000000000000000000, -1.000000000000000000, 0.0000000000000000000 ) ) ;
#121 = CARTESIAN_POINT ( 'NONE',  ( -0.5000000000000004441, 0.4500000000000000111, 5.080108266562829655 ) ) ;
#122 = LINE ( 'NONE', #86, #13 ) ;
#123 = EDGE_CURVE ( 'NONE', #32, #266, #35, .T. ) ;
#124 = CARTESIAN_POINT ( 'NONE',  ( -34.92499999999994742, -0.4500000000000000111, 9.038805230781333577 ) ) ;
#125 = FACE_OUTER_BOUND ( 'NONE', #34, .T. ) ;
#126 = CARTESIAN_POINT ( 'NONE',  ( -1.299999999999999600, 0.0000000000000000000, 0.0000000000000000000 ) ) ;
#127 = DIRECTION ( 'NONE',  ( 0.0000000000000000000, 0.0000000000000000000, -1.000000000000000000 ) ) ;
#128 = ORIENTED_EDGE ( 'NONE', *, *, #67, .T. ) ;
#129 = UNCERTAINTY_MEASURE_WITH_UNIT (LENGTH_MEASURE( 1.000000000000000082E-05 ), #206, 'distance_accuracy_value', 'NONE');
#130 =( NAMED_UNIT ( * ) SI_UNIT ( $, .STERADIAN. ) SOLID_ANGLE_UNIT ( ) );
#131 = EDGE_LOOP ( 'NONE', ( #268, #128, #48, #152 ) ) ;
#132 = VERTEX_POINT ( 'NONE', #41 ) ;
#133 = EDGE_CURVE ( 'NONE', #113, #55, #92, .T. ) ;
#134 = COLOUR_RGB ( '',0.7764705882352941346, 0.7568627450980391913, 0.7372549019607843590 ) ;
#135 = EDGE_LOOP ( 'NONE', ( #177, #270, #172, #199, #2, #154 ) ) ;
#136 = CARTESIAN_POINT ( 'NONE',  ( -1.800000000000000044, -0.4500000000000000111, 0.0000000000000000000 ) ) ;
#137 = CARTESIAN_POINT ( 'NONE',  ( 0.0000000000000000000, 0.0000000000000000000, 0.0000000000000000000 ) ) ;
#138 = CARTESIAN_POINT ( 'NONE',  ( 0.0000000000000000000, 0.4500000000000000111, 5.581890360800719542 ) ) ;
#139 = DIRECTION ( 'NONE',  ( 0.0000000000000000000, -0.0000000000000000000, 1.000000000000000000 ) ) ;
#140 = B_SPLINE_CURVE_WITH_KNOTS ( 'NONE', 3,
 ( #187, #273, #99, #276, #205, #100 ),
 .UNSPECIFIED., .F., .F.,
 ( 4, 2, 4 ),
 ( 0.002903068525591487835, 0.003294282989920717386, 0.003685497454249946504 ),
 .UNSPECIFIED. ) ;
#141 = DIRECTION ( 'NONE',  ( -1.000000000000000000, -0.0000000000000000000, -0.0000000000000000000 ) ) ;
#142 = EDGE_CURVE ( 'NONE', #132, #229, #277, .T. ) ;
#143 = LINE ( 'NONE', #237, #278 ) ;
#144 = CIRCLE ( 'NONE', #207, 5.599999999999998757 ) ;
#145 = DIRECTION ( 'NONE',  ( -1.000000000000000000, -0.0000000000000000000, -0.0000000000000000000 ) ) ;
#146 = LINE ( 'NONE', #20, #28 ) ;
#147 = DIRECTION ( 'NONE',  ( -1.000000000000000000, -0.0000000000000000000, -0.0000000000000000000 ) ) ;
#148 = ORIENTED_EDGE ( 'NONE', *, *, #18, .T. ) ;
#149 =( LENGTH_UNIT ( ) NAMED_UNIT ( * ) SI_UNIT ( .MILLI., .METRE. ) );
#150 = ORIENTED_EDGE ( 'NONE', *, *, #232, .T. ) ;
#151 =( LENGTH_UNIT ( ) NAMED_UNIT ( * ) SI_UNIT ( .MILLI., .METRE. ) );
#152 = ORIENTED_EDGE ( 'NONE', *, *, #279, .F. ) ;
#153 = ORIENTED_EDGE ( 'NONE', *, *, #271, .T. ) ;
#154 = ORIENTED_EDGE ( 'NONE', *, *, #159, .T. ) ;
#155 = CARTESIAN_POINT ( 'NONE',  ( -1.800000000000000044, 0.4500000000000000111, 5.581890360800719542 ) ) ;
#156 = CARTESIAN_POINT ( 'NONE',  ( -0.5000000000000004441, -0.4500000000000000111, 5.080108266562829655 ) ) ;
#157 = PRESENTATION_LAYER_ASSIGNMENT (  '', '', ( #16 ) ) ;
#158 = DIRECTION ( 'NONE',  ( 0.0000000000000000000, -0.0000000000000000000, -1.000000000000000000 ) ) ;
#159 = EDGE_CURVE ( 'NONE', #32, #229, #108, .T. ) ;
#160 = PLANE ( 'NONE',  #57 ) ;
#161 = FACE_OUTER_BOUND ( 'NONE', #131, .T. ) ;
#162 = CARTESIAN_POINT ( 'NONE',  ( -1.799999999999999600, -0.4500000000000007327, 0.0000000000000000000 ) ) ;
#163 = TOROIDAL_SURFACE ( 'NONE', #238, 5.599999999999998757, 0.4999999999999993339 ) ;
#164 = LINE ( 'NONE', #124, #33 ) ;
#165 = EDGE_LOOP ( 'NONE', ( #171, #223, #5, #173 ) ) ;
#166 = DIRECTION ( 'NONE',  ( -1.000000000000000000, -0.0000000000000000000, -0.0000000000000000000 ) ) ;
#167 = MECHANICAL_DESIGN_GEOMETRIC_PRESENTATION_REPRESENTATION (  '', ( #16 ), #200 ) ;
#168 = DIRECTION ( 'NONE',  ( 0.0000000000000000000, 0.0000000000000000000, 1.000000000000000000 ) ) ;
#169 = SURFACE_SIDE_STYLE ('',( #7 ) ) ;
#170 = PRODUCT_DEFINITION ( 'UNKNOWN', '', #213, #70 ) ;
#171 = ORIENTED_EDGE ( 'NONE', *, *, #185, .F. ) ;
#172 = ORIENTED_EDGE ( 'NONE', *, *, #78, .F. ) ;
#173 = ORIENTED_EDGE ( 'NONE', *, *, #232, .F. ) ;
#174 = ADVANCED_FACE ( 'NONE', ( #161 ), #193, .F. ) ;
#175 = ADVANCED_FACE ( 'NONE', ( #125 ), #285, .F. ) ;
#176 = APPLICATION_PROTOCOL_DEFINITION ( 'draft international standard', 'automotive_design', 1998, #3 ) ;
#177 = ORIENTED_EDGE ( 'NONE', *, *, #186, .T. ) ;
#178 = CARTESIAN_POINT ( 'NONE',  ( -0.2392198718771727239, 0.4500000000000000666, 5.133782973634287039 ) ) ;
#179 = CARTESIAN_POINT ( 'NONE',  ( -1.800000000000010481, -0.4500000000000000111, 5.451297721075353486 ) ) ;
#180 = TOROIDAL_SURFACE ( 'NONE', #62, 5.599999999999998757, 0.4999999999999993339 ) ;
#181 = PRODUCT ( '3405109', '3405109', '', ( #30 ) ) ;
#182 = DIRECTION ( 'NONE',  ( 0.0000000000000000000, 0.0000000000000000000, -1.000000000000000000 ) ) ;
#183 = SURFACE_STYLE_FILL_AREA ( #17 ) ;
#184 = VECTOR ( 'NONE', #182, 1000.000000000000000 ) ;
#185 = EDGE_CURVE ( 'NONE', #132, #71, #143, .T. ) ;
#186 = EDGE_CURVE ( 'NONE', #229, #246, #164, .T. ) ;
#187 = CARTESIAN_POINT ( 'NONE',  ( -1.299999999999978506, 0.4500000000000000111, 5.080108266562517905 ) ) ;
#188 = FACE_OUTER_BOUND ( 'NONE', #165, .T. ) ;
#189 = DIRECTION ( 'NONE',  ( -1.000000000000000000, -0.0000000000000000000, -0.0000000000000000000 ) ) ;
#190 = CYLINDRICAL_SURFACE ( 'NONE', #224, 9.050000000000000711 ) ;
#191 = STYLED_ITEM ( 'NONE', ( #68 ), #248 ) ;
#192 = DIRECTION ( 'NONE',  ( 0.0000000000000000000, 0.0000000000000000000, 1.000000000000000000 ) ) ;
#193 = PLANE ( 'NONE',  #6 ) ;
#194 = EDGE_CURVE ( 'NONE', #72, #113, #146, .T. ) ;
#195 = ORIENTED_EDGE ( 'NONE', *, *, #67, .F. ) ;
#196 = ORIENTED_EDGE ( 'NONE', *, *, #271, .F. ) ;
#197 = UNCERTAINTY_MEASURE_WITH_UNIT (LENGTH_MEASURE( 1.000000000000000082E-05 ), #149, 'distance_accuracy_value', 'NONE');
#198 = APPLICATION_PROTOCOL_DEFINITION ( 'draft international standard', 'automotive_design', 1998, #241 ) ;
#199 = ORIENTED_EDGE ( 'NONE', *, *, #220, .T. ) ;
#200 =( GEOMETRIC_REPRESENTATION_CONTEXT ( 3 ) GLOBAL_UNCERTAINTY_ASSIGNED_CONTEXT ( ( #129 ) ) GLOBAL_UNIT_ASSIGNED_CONTEXT ( ( #206, #274, #80 ) ) REPRESENTATION_CONTEXT ( 'NONE', 'WORKASPACE' ) );
#201 = ORIENTED_EDGE ( 'NONE', *, *, #194, .F. ) ;
#202 = AXIS2_PLACEMENT_3D ( 'NONE', #104, #147, #42 ) ;
#203 = ORIENTED_EDGE ( 'NONE', *, *, #133, .F. ) ;
#204 = SURFACE_STYLE_USAGE ( .BOTH. , #37 ) ;
#205 = CARTESIAN_POINT ( 'NONE',  ( -1.800000000000010036, 0.4500000000000000111, 5.451174468089519110 ) ) ;
#206 =( LENGTH_UNIT ( ) NAMED_UNIT ( * ) SI_UNIT ( .MILLI., .METRE. ) );
#207 = AXIS2_PLACEMENT_3D ( 'NONE', #102, #141, #244 ) ;
#208 = ADVANCED_FACE ( 'NONE', ( #263 ), #180, .T. ) ;
#209 = CARTESIAN_POINT ( 'NONE',  ( 0.0000000000000000000, -0.4500000000000000111, 5.581890360800719542 ) ) ;
#210 = CARTESIAN_POINT ( 'NONE',  ( -1.799999999999996048, -0.4500000000000007327, 5.581890360800719542 ) ) ;
#211 = VECTOR ( 'NONE', #39, 1000.000000000000000 ) ;
#212 = DIRECTION ( 'NONE',  ( 0.0000000000000000000, 0.0000000000000000000, 1.000000000000000000 ) ) ;
#213 = PRODUCT_DEFINITION_FORMATION_WITH_SPECIFIED_SOURCE ( 'ANY', '', #181, .NOT_KNOWN. ) ;
#214 = DIRECTION ( 'NONE',  ( 1.000000000000000000, 0.0000000000000000000, 0.0000000000000000000 ) ) ;
#215 = DIRECTION ( 'NONE',  ( -0.0000000000000000000, 0.0000000000000000000, 1.000000000000000000 ) ) ;
#216 = VECTOR ( 'NONE', #231, 1000.000000000000000 ) ;
#217 = DIRECTION ( 'NONE',  ( -1.000000000000000000, -0.0000000000000000000, -0.0000000000000000000 ) ) ;
#218 = B_SPLINE_CURVE_WITH_KNOTS ( 'NONE', 3,
 ( #156, #97, #12, #253, #118, #209 ),
 .UNSPECIFIED., .F., .F.,
 ( 4, 2, 4 ),
 ( 0.003011265684989799206, 0.003402460184709732698, 0.003793654684429666191 ),
 .UNSPECIFIED. ) ;
#219 = CARTESIAN_POINT ( 'NONE',  ( -0.5000000000000000000, 0.0000000000000000000, 0.0000000000000000000 ) ) ;
#220 = EDGE_CURVE ( 'NONE', #55, #266, #122, .T. ) ;
#221 = CARTESIAN_POINT ( 'NONE',  ( -1.799999999999996048, -0.4500000000000007327, 5.581890360800719542 ) ) ;
#222 =( NAMED_UNIT ( * ) PLANE_ANGLE_UNIT ( ) SI_UNIT ( $, .RADIAN. ) );
#223 = ORIENTED_EDGE ( 'NONE', *, *, #142, .T. ) ;
#224 = AXIS2_PLACEMENT_3D ( 'NONE', #236, #84, #259 ) ;
#225 = CARTESIAN_POINT ( 'NONE',  ( 0.0000000000000000000, 0.0000000000000000000, 0.0000000000000000000 ) ) ;
#226 = ORIENTED_EDGE ( 'NONE', *, *, #66, .F. ) ;
#227 = EDGE_LOOP ( 'NONE', ( #196, #47, #150, #115 ) ) ;
#228 = CLOSED_SHELL ( 'NONE', ( #262, #174, #243, #175, #208, #284, #107, #96 ) ) ;
#229 = VERTEX_POINT ( 'NONE', #103 ) ;
#230 = FILL_AREA_STYLE_COLOUR ( '', #134 ) ;
#231 = DIRECTION ( 'NONE',  ( 0.0000000000000000000, 0.0000000000000000000, 1.000000000000000000 ) ) ;
#232 = EDGE_CURVE ( 'NONE', #71, #32, #144, .T. ) ;
#233 = PRODUCT_RELATED_PRODUCT_CATEGORY ( 'part', '', ( #181 ) ) ;
#234 = CARTESIAN_POINT ( 'NONE',  ( 0.0000000000000000000, -0.4500000000000000111, 5.581890360800719542 ) ) ;
#235 = CARTESIAN_POINT ( 'NONE',  ( -1.800000000000000044, 0.4500000000000000111, 9.231000000000001648 ) ) ;
#236 = CARTESIAN_POINT ( 'NONE',  ( -34.92499999999994742, 0.0000000000000000000, 0.0000000000000000000 ) ) ;
#237 = CARTESIAN_POINT ( 'NONE',  ( -1.799999999999999600, 0.4500000000000007327, 0.0000000000000000000 ) ) ;
#238 = AXIS2_PLACEMENT_3D ( 'NONE', #219, #189, #281 ) ;
#239 = CARTESIAN_POINT ( 'NONE',  ( 0.0000000000000000000, -0.4500000000000000111, 9.038805230781333577 ) ) ;
#240 = CARTESIAN_POINT ( 'NONE',  ( -1.430549311914918187, -0.4500000000000000111, 5.080108266563356345 ) ) ;
#241 = APPLICATION_CONTEXT ( 'automotive_design' ) ;
#242 = AXIS2_PLACEMENT_3D ( 'NONE', #65, #19, #60 ) ;
#243 = ADVANCED_FACE ( 'NONE', ( #63 ), #163, .T. ) ;
#244 = DIRECTION ( 'NONE',  ( 0.0000000000000000000, 0.0000000000000000000, 1.000000000000000000 ) ) ;
#245 = ORIENTED_EDGE ( 'NONE', *, *, #18, .F. ) ;
#246 = VERTEX_POINT ( 'NONE', #239 ) ;
#247 = CIRCLE ( 'NONE', #98, 9.050000000000000711 ) ;
#248 = ADVANCED_BREP_SHAPE_REPRESENTATION ( '3405109', ( #85, #49 ), #50 ) ;
#249 = ORIENTED_EDGE ( 'NONE', *, *, #87, .T. ) ;
#250 = ORIENTED_EDGE ( 'NONE', *, *, #194, .T. ) ;
#251 = CARTESIAN_POINT ( 'NONE',  ( -0.5000000000000004441, 0.4500000000000000111, 5.080108266562829655 ) ) ;
#252 =( GEOMETRIC_REPRESENTATION_CONTEXT ( 3 ) GLOBAL_UNCERTAINTY_ASSIGNED_CONTEXT ( ( #29 ) ) GLOBAL_UNIT_ASSIGNED_CONTEXT ( ( #151, #222, #130 ) ) REPRESENTATION_CONTEXT ( 'NONE', 'WORKASPACE' ) );
#253 = CARTESIAN_POINT ( 'NONE',  ( -0.05394924350548296194, -0.4500000000000000666, 5.320225181934917558 ) ) ;
#254 = AXIS2_PLACEMENT_3D ( 'NONE', #64, #280, #258 ) ;
#255 = CARTESIAN_POINT ( 'NONE',  ( 0.0000000000000000000, 0.4500000000000000111, 9.038805230781333577 ) ) ;
#256 = LINE ( 'NONE', #59, #216 ) ;
#257 = CARTESIAN_POINT ( 'NONE',  ( -1.299999999999978506, 0.4500000000000000111, 5.080108266562517905 ) ) ;
#258 = DIRECTION ( 'NONE',  ( 0.0000000000000000000, 0.0000000000000000000, 1.000000000000000000 ) ) ;
#259 = DIRECTION ( 'NONE',  ( 0.0000000000000000000, 0.0000000000000000000, 1.000000000000000000 ) ) ;
#260 = AXIS2_PLACEMENT_3D ( 'NONE', #45, #53, #46 ) ;
#261 = DIRECTION ( 'NONE',  ( 1.000000000000000000, 0.0000000000000000000, 0.0000000000000000000 ) ) ;
#262 = ADVANCED_FACE ( 'NONE', ( #82 ), #190, .T. ) ;
#263 = FACE_OUTER_BOUND ( 'NONE', #227, .T. ) ;
#264 = AXIS2_PLACEMENT_3D ( 'NONE', #137, #77, #40 ) ;
#265 = ORIENTED_EDGE ( 'NONE', *, *, #185, .T. ) ;
#266 = VERTEX_POINT ( 'NONE', #43 ) ;
#267 =( NAMED_UNIT ( * ) PLANE_ANGLE_UNIT ( ) SI_UNIT ( $, .RADIAN. ) );
#268 = ORIENTED_EDGE ( 'NONE', *, *, #51, .T. ) ;
#269 = SURFACE_STYLE_USAGE ( .BOTH. , #169 ) ;
#270 = ORIENTED_EDGE ( 'NONE', *, *, #106, .F. ) ;
#271 = EDGE_CURVE ( 'NONE', #72, #266, #83, .T. ) ;
#272 = ORIENTED_EDGE ( 'NONE', *, *, #133, .T. ) ;
#273 = CARTESIAN_POINT ( 'NONE',  ( -1.430866995726380431, 0.4500000000000000111, 5.080108266562810115 ) ) ;
#274 =( NAMED_UNIT ( * ) PLANE_ANGLE_UNIT ( ) SI_UNIT ( $, .RADIAN. ) );
#275 = PRODUCT_DEFINITION_SHAPE ( 'NONE', 'NONE',  #170 ) ;
#276 = CARTESIAN_POINT ( 'NONE',  ( -1.747043924425510264, 0.4500000000000000666, 5.321150980952212173 ) ) ;
#277 = CIRCLE ( 'NONE', #254, 9.050000000000000711 ) ;
#278 = VECTOR ( 'NONE', #127, 1000.000000000000000 ) ;
#279 = EDGE_CURVE ( 'NONE', #94, #246, #247, .T. ) ;
#280 = DIRECTION ( 'NONE',  ( -1.000000000000000000, -0.0000000000000000000, -0.0000000000000000000 ) ) ;
#281 = DIRECTION ( 'NONE',  ( 0.0000000000000000000, 0.0000000000000000000, 1.000000000000000000 ) ) ;
#282 = PLANE ( 'NONE',  #260 ) ;
#283 = AXIS2_PLACEMENT_3D ( 'NONE', #88, #21, #105 ) ;
#284 = ADVANCED_FACE ( 'NONE', ( #188 ), #282, .F. ) ;
#285 = CYLINDRICAL_SURFACE ( 'NONE', #202, 5.100000000000000533 ) ;
#286 = CARTESIAN_POINT ( 'NONE',  ( 0.0000000000000000000, 5.599999999999998757, 0.0000000000000000000 ) ) ;
ENDSEC;
END-ISO-10303-21;
