ISO-10303-21;
HEADER;
FILE_DESCRIPTION (( 'STEP AP214' ),
    '1' );
FILE_NAME ('5021484_KSTP1.stp',
    '2018-08-28T08:08:27',
    ( '' ),
    ( '' ),
    'SwSTEP 2.0',
    'SolidWorks 2016',
    '' );
FILE_SCHEMA (( 'AUTOMOTIVE_DESIGN' ));
ENDSEC;

DATA;
#1 = DIRECTION ( 'NONE',  ( 0.0000000000000000000, 0.0000000000000000000, 1.000000000000000000 ) ) ;
#2 = SURFACE_SIDE_STYLE ('',( #114 ) ) ;
#3 = DIRECTION ( 'NONE',  ( -1.000000000000000000, 0.0000000000000000000, 0.0000000000000000000 ) ) ;
#4 = MECHANICAL_DESIGN_GEOMETRIC_PRESENTATION_REPRESENTATION (  '', ( #166 ), #176 ) ;
#5 = APPLICATION_CONTEXT ( 'automotive_design' ) ;
#6 = FACE_OUTER_BOUND ( 'NONE', #193, .T. ) ;
#7 = AXIS2_PLACEMENT_3D ( 'NONE', #45, #34, #50 ) ;
#8 = FILL_AREA_STYLE_COLOUR ( '', #72 ) ;
#9 =( NAMED_UNIT ( * ) SI_UNIT ( $, .STERADIAN. ) SOLID_ANGLE_UNIT ( ) );
#10 =( GEOMETRIC_REPRESENTATION_CONTEXT ( 3 ) GLOBAL_UNCERTAINTY_ASSIGNED_CONTEXT ( ( #99 ) ) GLOBAL_UNIT_ASSIGNED_CONTEXT ( ( #101, #55, #9 ) ) REPRESENTATION_CONTEXT ( 'NONE', 'WORKASPACE' ) );
#11 = ORIENTED_EDGE ( 'NONE', *, *, #120, .F. ) ;
#12 = DIRECTION ( 'NONE',  ( -0.0000000000000000000, -0.0000000000000000000, -1.000000000000000000 ) ) ;
#13 =( NAMED_UNIT ( * ) SI_UNIT ( $, .STERADIAN. ) SOLID_ANGLE_UNIT ( ) );
#14 = APPLICATION_PROTOCOL_DEFINITION ( 'draft international standard', 'automotive_design', 1998, #32 ) ;
#15 = ORIENTED_EDGE ( 'NONE', *, *, #115, .T. ) ;
#16 = PRODUCT_DEFINITION_CONTEXT ( 'detailed design', #5, 'design' ) ;
#17 = PRODUCT_DEFINITION_FORMATION_WITH_SPECIFIED_SOURCE ( 'ANY', '', #49, .NOT_KNOWN. ) ;
#18 = SURFACE_SIDE_STYLE ('',( #144 ) ) ;
#19 = DIRECTION ( 'NONE',  ( 0.0000000000000000000, 0.0000000000000000000, 1.000000000000000000 ) ) ;
#20 = UNCERTAINTY_MEASURE_WITH_UNIT (LENGTH_MEASURE( 1.000000000000000100E-005 ), #106, 'distance_accuracy_value', 'NONE');
#21 = COLOUR_RGB ( '',0.7529411764705882200, 0.7529411764705882200, 0.7529411764705882200 ) ;
#22 = ORIENTED_EDGE ( 'NONE', *, *, #96, .T. ) ;
#23 = AXIS2_PLACEMENT_3D ( 'NONE', #131, #164, #70 ) ;
#24 = VERTEX_POINT ( 'NONE', #181 ) ;
#25 = SURFACE_SIDE_STYLE ('',( #103 ) ) ;
#26 = PRESENTATION_STYLE_ASSIGNMENT (( #91 ) ) ;
#27 = ORIENTED_EDGE ( 'NONE', *, *, #183, .T. ) ;
#28 = UNCERTAINTY_MEASURE_WITH_UNIT (LENGTH_MEASURE( 1.000000000000000100E-005 ), #86, 'distance_accuracy_value', 'NONE');
#29 = DIRECTION ( 'NONE',  ( 0.0000000000000000000, 0.0000000000000000000, 1.000000000000000000 ) ) ;
#30 =( LENGTH_UNIT ( ) NAMED_UNIT ( * ) SI_UNIT ( .MILLI., .METRE. ) );
#31 = PRESENTATION_LAYER_ASSIGNMENT (  '', '', ( #127 ) ) ;
#32 = APPLICATION_CONTEXT ( 'automotive_design' ) ;
#33 =( NAMED_UNIT ( * ) SI_UNIT ( $, .STERADIAN. ) SOLID_ANGLE_UNIT ( ) );
#34 = DIRECTION ( 'NONE',  ( 0.0000000000000000000, 0.0000000000000000000, 1.000000000000000000 ) ) ;
#35 = DIRECTION ( 'NONE',  ( 1.000000000000000000, 0.0000000000000000000, 0.0000000000000000000 ) ) ;
#36 = UNCERTAINTY_MEASURE_WITH_UNIT (LENGTH_MEASURE( 1.000000000000000100E-005 ), #171, 'distance_accuracy_value', 'NONE');
#37 = CYLINDRICAL_SURFACE ( 'NONE', #54, 4.000000000000000000 ) ;
#38 = DIRECTION ( 'NONE',  ( -0.0000000000000000000, -0.0000000000000000000, -1.000000000000000000 ) ) ;
#39 = LINE ( 'NONE', #95, #180 ) ;
#40 =( NAMED_UNIT ( * ) SI_UNIT ( $, .STERADIAN. ) SOLID_ANGLE_UNIT ( ) );
#41 = AXIS2_PLACEMENT_3D ( 'NONE', #170, #93, #35 ) ;
#42 = COLOUR_RGB ( '',0.7529411764705882200, 0.7529411764705882200, 0.7529411764705882200 ) ;
#43 = CARTESIAN_POINT ( 'NONE',  ( 4.000000000000000000, 4.898587196589412800E-016, 55500.00000000000000 ) ) ;
#44 = FILL_AREA_STYLE_COLOUR ( '', #21 ) ;
#45 = CARTESIAN_POINT ( 'NONE',  ( 0.0000000000000000000, 0.0000000000000000000, 0.0000000000000000000 ) ) ;
#46 = CIRCLE ( 'NONE', #41, 4.000000000000000000 ) ;
#47 = CARTESIAN_POINT ( 'NONE',  ( 0.0000000000000000000, 0.0000000000000000000, 55500.00000000000000 ) ) ;
#48 = CARTESIAN_POINT ( 'NONE',  ( -4.000000000000000000, 0.0000000000000000000, 0.0000000000000000000 ) ) ;
#49 = PRODUCT ( '5021484_KSTP1', '5021484_KSTP1', '', ( #191 ) ) ;
#50 = DIRECTION ( 'NONE',  ( 1.000000000000000000, 0.0000000000000000000, 0.0000000000000000000 ) ) ;
#51 = COLOUR_RGB ( '',0.7529411764705882200, 0.7529411764705882200, 0.7529411764705882200 ) ;
#52 = APPLICATION_PROTOCOL_DEFINITION ( 'draft international standard', 'automotive_design', 1998, #5 ) ;
#53 = ADVANCED_BREP_SHAPE_REPRESENTATION ( '5021484_KSTP1', ( #112, #7 ), #156 ) ;
#54 = AXIS2_PLACEMENT_3D ( 'NONE', #137, #66, #3 ) ;
#55 =( NAMED_UNIT ( * ) PLANE_ANGLE_UNIT ( ) SI_UNIT ( $, .RADIAN. ) );
#56 = CARTESIAN_POINT ( 'NONE',  ( 0.0000000000000000000, 0.0000000000000000000, 55500.00000000000000 ) ) ;
#57 = COLOUR_RGB ( '',0.7529411764705882200, 0.7529411764705882200, 0.7529411764705882200 ) ;
#58 = SURFACE_SIDE_STYLE ('',( #128 ) ) ;
#59 = PRODUCT_DEFINITION ( 'UNKNOWN', '', #17, #16 ) ;
#60 = FILL_AREA_STYLE_COLOUR ( '', #51 ) ;
#61 =( GEOMETRIC_REPRESENTATION_CONTEXT ( 3 ) GLOBAL_UNCERTAINTY_ASSIGNED_CONTEXT ( ( #174 ) ) GLOBAL_UNIT_ASSIGNED_CONTEXT ( ( #30, #135, #40 ) ) REPRESENTATION_CONTEXT ( 'NONE', 'WORKASPACE' ) );
#62 =( LENGTH_UNIT ( ) NAMED_UNIT ( * ) SI_UNIT ( .MILLI., .METRE. ) );
#63 = UNCERTAINTY_MEASURE_WITH_UNIT (LENGTH_MEASURE( 1.000000000000000100E-005 ), #62, 'distance_accuracy_value', 'NONE');
#64 = ORIENTED_EDGE ( 'NONE', *, *, #120, .T. ) ;
#65 = SURFACE_STYLE_USAGE ( .BOTH. , #18 ) ;
#66 = DIRECTION ( 'NONE',  ( -0.0000000000000000000, -0.0000000000000000000, -1.000000000000000000 ) ) ;
#67 = PRESENTATION_LAYER_ASSIGNMENT (  '', '', ( #84 ) ) ;
#68 = PRESENTATION_STYLE_ASSIGNMENT (( #155 ) ) ;
#69 = ORIENTED_EDGE ( 'NONE', *, *, #197, .T. ) ;
#70 = DIRECTION ( 'NONE',  ( 1.000000000000000000, 0.0000000000000000000, -0.0000000000000000000 ) ) ;
#71 = SURFACE_STYLE_USAGE ( .BOTH. , #118 ) ;
#72 = COLOUR_RGB ( '',0.7529411764705882200, 0.7529411764705882200, 0.7529411764705882200 ) ;
#73 = MECHANICAL_DESIGN_GEOMETRIC_PRESENTATION_REPRESENTATION (  '', ( #163 ), #136 ) ;
#74 = SURFACE_STYLE_USAGE ( .BOTH. , #25 ) ;
#75 = FILL_AREA_STYLE ('',( #116 ) ) ;
#76 = PRODUCT_RELATED_PRODUCT_CATEGORY ( 'part', '', ( #49 ) ) ;
#77 = DIRECTION ( 'NONE',  ( 1.000000000000000000, 0.0000000000000000000, -0.0000000000000000000 ) ) ;
#78 =( NAMED_UNIT ( * ) PLANE_ANGLE_UNIT ( ) SI_UNIT ( $, .RADIAN. ) );
#79 = ADVANCED_FACE ( 'NONE', ( #184 ), #88, .F. ) ;
#80 =( NAMED_UNIT ( * ) SI_UNIT ( $, .STERADIAN. ) SOLID_ANGLE_UNIT ( ) );
#81 = FACE_OUTER_BOUND ( 'NONE', #83, .T. ) ;
#82 = CARTESIAN_POINT ( 'NONE',  ( 0.0000000000000000000, 0.0000000000000000000, 0.0000000000000000000 ) ) ;
#83 = EDGE_LOOP ( 'NONE', ( #15, #22 ) ) ;
#84 = STYLED_ITEM ( 'NONE', ( #161 ), #200 ) ;
#85 = CYLINDRICAL_SURFACE ( 'NONE', #102, 4.000000000000000000 ) ;
#86 =( LENGTH_UNIT ( ) NAMED_UNIT ( * ) SI_UNIT ( .MILLI., .METRE. ) );
#87 = FILL_AREA_STYLE ('',( #192 ) ) ;
#88 = PLANE ( 'NONE',  #23 ) ;
#89 = ADVANCED_FACE ( 'NONE', ( #154 ), #85, .T. ) ;
#90 = ORIENTED_EDGE ( 'NONE', *, *, #146, .T. ) ;
#91 = SURFACE_STYLE_USAGE ( .BOTH. , #2 ) ;
#92 = PRESENTATION_LAYER_ASSIGNMENT (  '', '', ( #189 ) ) ;
#93 = DIRECTION ( 'NONE',  ( 0.0000000000000000000, 0.0000000000000000000, 1.000000000000000000 ) ) ;
#94 = VECTOR ( 'NONE', #157, 1000.000000000000000 ) ;
#95 = CARTESIAN_POINT ( 'NONE',  ( -4.000000000000000000, 0.0000000000000000000, 55500.00000000000000 ) ) ;
#96 = EDGE_CURVE ( 'NONE', #143, #186, #150, .T. ) ;
#97 = CIRCLE ( 'NONE', #98, 4.000000000000000000 ) ;
#98 = AXIS2_PLACEMENT_3D ( 'NONE', #82, #142, #125 ) ;
#99 = UNCERTAINTY_MEASURE_WITH_UNIT (LENGTH_MEASURE( 1.000000000000000100E-005 ), #101, 'distance_accuracy_value', 'NONE');
#100 = ORIENTED_EDGE ( 'NONE', *, *, #96, .F. ) ;
#101 =( LENGTH_UNIT ( ) NAMED_UNIT ( * ) SI_UNIT ( .MILLI., .METRE. ) );
#102 = AXIS2_PLACEMENT_3D ( 'NONE', #56, #38, #119 ) ;
#103 = SURFACE_STYLE_FILL_AREA ( #75 ) ;
#104 = CARTESIAN_POINT ( 'NONE',  ( 0.0000000000000000000, 0.0000000000000000000, 55500.00000000000000 ) ) ;
#105 = DIRECTION ( 'NONE',  ( 1.000000000000000000, 0.0000000000000000000, 0.0000000000000000000 ) ) ;
#106 =( LENGTH_UNIT ( ) NAMED_UNIT ( * ) SI_UNIT ( .MILLI., .METRE. ) );
#107 =( NAMED_UNIT ( * ) PLANE_ANGLE_UNIT ( ) SI_UNIT ( $, .RADIAN. ) );
#108 = FILL_AREA_STYLE ('',( #172 ) ) ;
#109 = PRESENTATION_LAYER_ASSIGNMENT (  '', '', ( #163 ) ) ;
#110 = CARTESIAN_POINT ( 'NONE',  ( 0.0000000000000000000, 0.0000000000000000000, 0.0000000000000000000 ) ) ;
#111 = SURFACE_STYLE_FILL_AREA ( #138 ) ;
#112 = MANIFOLD_SOLID_BREP ( 'Boss-Extrude1', #182 ) ;
#113 = STYLED_ITEM ( 'NONE', ( #190 ), #112 ) ;
#114 = SURFACE_STYLE_FILL_AREA ( #108 ) ;
#115 = EDGE_CURVE ( 'NONE', #186, #143, #46, .T. ) ;
#116 = FILL_AREA_STYLE_COLOUR ( '', #185 ) ;
#117 = ORIENTED_EDGE ( 'NONE', *, *, #115, .F. ) ;
#118 = SURFACE_SIDE_STYLE ('',( #165 ) ) ;
#119 = DIRECTION ( 'NONE',  ( -1.000000000000000000, 0.0000000000000000000, 0.0000000000000000000 ) ) ;
#120 = EDGE_CURVE ( 'NONE', #186, #175, #39, .T. ) ;
#121 = CIRCLE ( 'NONE', #123, 4.000000000000000000 ) ;
#122 = DIRECTION ( 'NONE',  ( 1.000000000000000000, 0.0000000000000000000, 0.0000000000000000000 ) ) ;
#123 = AXIS2_PLACEMENT_3D ( 'NONE', #110, #19, #122 ) ;
#124 = SURFACE_SIDE_STYLE ('',( #111 ) ) ;
#125 = DIRECTION ( 'NONE',  ( 1.000000000000000000, 0.0000000000000000000, 0.0000000000000000000 ) ) ;
#126 = CARTESIAN_POINT ( 'NONE',  ( 4.000000000000000000, 4.898587196589412800E-016, 55500.00000000000000 ) ) ;
#127 = STYLED_ITEM ( 'NONE', ( #134 ), #89 ) ;
#128 = SURFACE_STYLE_FILL_AREA ( #87 ) ;
#129 = ORIENTED_EDGE ( 'NONE', *, *, #197, .F. ) ;
#130 = FILL_AREA_STYLE ('',( #8 ) ) ;
#131 = CARTESIAN_POINT ( 'NONE',  ( 0.0000000000000000000, 0.0000000000000000000, 0.0000000000000000000 ) ) ;
#132 = UNCERTAINTY_MEASURE_WITH_UNIT (LENGTH_MEASURE( 1.000000000000000100E-005 ), #140, 'distance_accuracy_value', 'NONE');
#133 = MECHANICAL_DESIGN_GEOMETRIC_PRESENTATION_REPRESENTATION (  '', ( #84 ), #145 ) ;
#134 = PRESENTATION_STYLE_ASSIGNMENT (( #74 ) ) ;
#135 =( NAMED_UNIT ( * ) PLANE_ANGLE_UNIT ( ) SI_UNIT ( $, .RADIAN. ) );
#136 =( GEOMETRIC_REPRESENTATION_CONTEXT ( 3 ) GLOBAL_UNCERTAINTY_ASSIGNED_CONTEXT ( ( #63 ) ) GLOBAL_UNIT_ASSIGNED_CONTEXT ( ( #62, #78, #80 ) ) REPRESENTATION_CONTEXT ( 'NONE', 'WORKASPACE' ) );
#137 = CARTESIAN_POINT ( 'NONE',  ( 0.0000000000000000000, 0.0000000000000000000, 55500.00000000000000 ) ) ;
#138 = FILL_AREA_STYLE ('',( #44 ) ) ;
#139 = EDGE_LOOP ( 'NONE', ( #129, #117, #64, #90 ) ) ;
#140 =( LENGTH_UNIT ( ) NAMED_UNIT ( * ) SI_UNIT ( .MILLI., .METRE. ) );
#141 = PRESENTATION_LAYER_ASSIGNMENT (  '', '', ( #113 ) ) ;
#142 = DIRECTION ( 'NONE',  ( 0.0000000000000000000, 0.0000000000000000000, 1.000000000000000000 ) ) ;
#143 = VERTEX_POINT ( 'NONE', #43 ) ;
#144 = SURFACE_STYLE_FILL_AREA ( #188 ) ;
#145 =( GEOMETRIC_REPRESENTATION_CONTEXT ( 3 ) GLOBAL_UNCERTAINTY_ASSIGNED_CONTEXT ( ( #132 ) ) GLOBAL_UNIT_ASSIGNED_CONTEXT ( ( #140, #158, #198 ) ) REPRESENTATION_CONTEXT ( 'NONE', 'WORKASPACE' ) );
#146 = EDGE_CURVE ( 'NONE', #175, #24, #97, .T. ) ;
#147 = MECHANICAL_DESIGN_GEOMETRIC_PRESENTATION_REPRESENTATION (  '', ( #127 ), #160 ) ;
#148 =( NAMED_UNIT ( * ) PLANE_ANGLE_UNIT ( ) SI_UNIT ( $, .RADIAN. ) );
#149 = SHAPE_DEFINITION_REPRESENTATION ( #196, #53 ) ;
#150 = CIRCLE ( 'NONE', #199, 4.000000000000000000 ) ;
#151 = MECHANICAL_DESIGN_GEOMETRIC_PRESENTATION_REPRESENTATION (  '', ( #189 ), #10 ) ;
#152 = ADVANCED_FACE ( 'NONE', ( #6 ), #37, .T. ) ;
#153 = CARTESIAN_POINT ( 'NONE',  ( -4.000000000000000000, 0.0000000000000000000, 55500.00000000000000 ) ) ;
#154 = FACE_OUTER_BOUND ( 'NONE', #139, .T. ) ;
#155 = SURFACE_STYLE_USAGE ( .BOTH. , #124 ) ;
#156 =( GEOMETRIC_REPRESENTATION_CONTEXT ( 3 ) GLOBAL_UNCERTAINTY_ASSIGNED_CONTEXT ( ( #20 ) ) GLOBAL_UNIT_ASSIGNED_CONTEXT ( ( #106, #107, #13 ) ) REPRESENTATION_CONTEXT ( 'NONE', 'WORKASPACE' ) );
#157 = DIRECTION ( 'NONE',  ( -0.0000000000000000000, -0.0000000000000000000, -1.000000000000000000 ) ) ;
#158 =( NAMED_UNIT ( * ) PLANE_ANGLE_UNIT ( ) SI_UNIT ( $, .RADIAN. ) );
#159 = PRESENTATION_LAYER_ASSIGNMENT (  '', '', ( #166 ) ) ;
#160 =( GEOMETRIC_REPRESENTATION_CONTEXT ( 3 ) GLOBAL_UNCERTAINTY_ASSIGNED_CONTEXT ( ( #28 ) ) GLOBAL_UNIT_ASSIGNED_CONTEXT ( ( #86, #148, #195 ) ) REPRESENTATION_CONTEXT ( 'NONE', 'WORKASPACE' ) );
#161 = PRESENTATION_STYLE_ASSIGNMENT (( #65 ) ) ;
#162 = ORIENTED_EDGE ( 'NONE', *, *, #183, .F. ) ;
#163 = STYLED_ITEM ( 'NONE', ( #26 ), #152 ) ;
#164 = DIRECTION ( 'NONE',  ( 0.0000000000000000000, 0.0000000000000000000, 1.000000000000000000 ) ) ;
#165 = SURFACE_STYLE_FILL_AREA ( #130 ) ;
#166 = STYLED_ITEM ( 'NONE', ( #68 ), #53 ) ;
#167 = SURFACE_STYLE_USAGE ( .BOTH. , #58 ) ;
#168 = MECHANICAL_DESIGN_GEOMETRIC_PRESENTATION_REPRESENTATION (  '', ( #113 ), #61 ) ;
#169 = PRESENTATION_STYLE_ASSIGNMENT (( #71 ) ) ;
#170 = CARTESIAN_POINT ( 'NONE',  ( 0.0000000000000000000, 0.0000000000000000000, 55500.00000000000000 ) ) ;
#171 =( LENGTH_UNIT ( ) NAMED_UNIT ( * ) SI_UNIT ( .MILLI., .METRE. ) );
#172 = FILL_AREA_STYLE_COLOUR ( '', #57 ) ;
#173 = PLANE ( 'NONE',  #194 ) ;
#174 = UNCERTAINTY_MEASURE_WITH_UNIT (LENGTH_MEASURE( 1.000000000000000100E-005 ), #30, 'distance_accuracy_value', 'NONE');
#175 = VERTEX_POINT ( 'NONE', #48 ) ;
#176 =( GEOMETRIC_REPRESENTATION_CONTEXT ( 3 ) GLOBAL_UNCERTAINTY_ASSIGNED_CONTEXT ( ( #36 ) ) GLOBAL_UNIT_ASSIGNED_CONTEXT ( ( #171, #187, #33 ) ) REPRESENTATION_CONTEXT ( 'NONE', 'WORKASPACE' ) );
#177 = LINE ( 'NONE', #126, #94 ) ;
#178 = ORIENTED_EDGE ( 'NONE', *, *, #146, .F. ) ;
#179 = EDGE_LOOP ( 'NONE', ( #178, #162 ) ) ;
#180 = VECTOR ( 'NONE', #12, 1000.000000000000000 ) ;
#181 = CARTESIAN_POINT ( 'NONE',  ( 4.000000000000000000, 4.898587196589412800E-016, 0.0000000000000000000 ) ) ;
#182 = CLOSED_SHELL ( 'NONE', ( #152, #89, #200, #79 ) ) ;
#183 = EDGE_CURVE ( 'NONE', #24, #175, #121, .T. ) ;
#184 = FACE_OUTER_BOUND ( 'NONE', #179, .T. ) ;
#185 = COLOUR_RGB ( '',0.7529411764705882200, 0.7529411764705882200, 0.7529411764705882200 ) ;
#186 = VERTEX_POINT ( 'NONE', #153 ) ;
#187 =( NAMED_UNIT ( * ) PLANE_ANGLE_UNIT ( ) SI_UNIT ( $, .RADIAN. ) );
#188 = FILL_AREA_STYLE ('',( #60 ) ) ;
#189 = STYLED_ITEM ( 'NONE', ( #169 ), #79 ) ;
#190 = PRESENTATION_STYLE_ASSIGNMENT (( #167 ) ) ;
#191 = PRODUCT_CONTEXT ( 'NONE', #32, 'mechanical' ) ;
#192 = FILL_AREA_STYLE_COLOUR ( '', #42 ) ;
#193 = EDGE_LOOP ( 'NONE', ( #100, #69, #27, #11 ) ) ;
#194 = AXIS2_PLACEMENT_3D ( 'NONE', #47, #1, #77 ) ;
#195 =( NAMED_UNIT ( * ) SI_UNIT ( $, .STERADIAN. ) SOLID_ANGLE_UNIT ( ) );
#196 = PRODUCT_DEFINITION_SHAPE ( 'NONE', 'NONE',  #59 ) ;
#197 = EDGE_CURVE ( 'NONE', #143, #24, #177, .T. ) ;
#198 =( NAMED_UNIT ( * ) SI_UNIT ( $, .STERADIAN. ) SOLID_ANGLE_UNIT ( ) );
#199 = AXIS2_PLACEMENT_3D ( 'NONE', #104, #29, #105 ) ;
#200 = ADVANCED_FACE ( 'NONE', ( #81 ), #173, .T. ) ;
ENDSEC;
END-ISO-10303-21;
