ISO-10303-21;
HEADER;
FILE_DESCRIPTION((''),'2;1');
FILE_NAME('6356109','2013-01-26T',('AndreasKeweloh'),(''),
'PRO/ENGINEER BY PARAMETRIC TECHNOLOGY CORPORATION, 2012360',
'PRO/ENGINEER BY PARAMETRIC TECHNOLOGY CORPORATION, 2012360','');
FILE_SCHEMA(('CONFIG_CONTROL_DESIGN'));
ENDSEC;
DATA;
#1=DIRECTION('',(0.E0,0.E0,1.E0));
#2=VECTOR('',#1,4.E1);
#3=CARTESIAN_POINT('',(0.E0,4.E1,0.E0));
#4=LINE('',#3,#2);
#5=DIRECTION('',(-1.E0,0.E0,0.E0));
#6=VECTOR('',#5,7.E0);
#7=CARTESIAN_POINT('',(2.35E1,4.E1,2.65E1));
#8=LINE('',#7,#6);
#9=CARTESIAN_POINT('',(2.35E1,4.E1,2.E1));
#10=DIRECTION('',(0.E0,-1.E0,0.E0));
#11=DIRECTION('',(0.E0,0.E0,-1.E0));
#12=AXIS2_PLACEMENT_3D('',#9,#10,#11);
#14=DIRECTION('',(1.E0,0.E0,0.E0));
#15=VECTOR('',#14,7.E0);
#16=CARTESIAN_POINT('',(1.65E1,4.E1,1.35E1));
#17=LINE('',#16,#15);
#18=CARTESIAN_POINT('',(1.65E1,4.E1,2.E1));
#19=DIRECTION('',(0.E0,-1.E0,0.E0));
#20=DIRECTION('',(0.E0,0.E0,1.E0));
#21=AXIS2_PLACEMENT_3D('',#18,#19,#20);
#23=DIRECTION('',(0.E0,-1.E0,0.E0));
#24=VECTOR('',#23,7.2E1);
#25=CARTESIAN_POINT('',(3.6E1,3.6E1,0.E0));
#26=LINE('',#25,#24);
#27=DIRECTION('',(-1.E0,0.E0,0.E0));
#28=VECTOR('',#27,3.6E1);
#29=CARTESIAN_POINT('',(3.6E1,-3.6E1,0.E0));
#30=LINE('',#29,#28);
#31=DIRECTION('',(0.E0,1.E0,0.E0));
#32=VECTOR('',#31,4.E0);
#33=CARTESIAN_POINT('',(0.E0,-4.E1,0.E0));
#34=LINE('',#33,#32);
#35=DIRECTION('',(1.E0,0.E0,0.E0));
#36=VECTOR('',#35,4.E1);
#37=CARTESIAN_POINT('',(0.E0,-4.E1,0.E0));
#38=LINE('',#37,#36);
#39=DIRECTION('',(0.E0,1.E0,0.E0));
#40=VECTOR('',#39,8.E1);
#41=CARTESIAN_POINT('',(4.E1,-4.E1,0.E0));
#42=LINE('',#41,#40);
#43=DIRECTION('',(-1.E0,0.E0,0.E0));
#44=VECTOR('',#43,4.E1);
#45=CARTESIAN_POINT('',(4.E1,4.E1,0.E0));
#46=LINE('',#45,#44);
#47=DIRECTION('',(1.E0,0.E0,0.E0));
#48=VECTOR('',#47,3.6E1);
#49=CARTESIAN_POINT('',(0.E0,3.6E1,0.E0));
#50=LINE('',#49,#48);
#51=CARTESIAN_POINT('',(3.6E1,0.E0,2.E1));
#52=DIRECTION('',(1.E0,0.E0,0.E0));
#53=DIRECTION('',(0.E0,0.E0,-1.E0));
#54=AXIS2_PLACEMENT_3D('',#51,#52,#53);
#56=CARTESIAN_POINT('',(3.6E1,0.E0,2.E1));
#57=DIRECTION('',(1.E0,0.E0,0.E0));
#58=DIRECTION('',(0.E0,0.E0,1.E0));
#59=AXIS2_PLACEMENT_3D('',#56,#57,#58);
#61=DIRECTION('',(0.E0,0.E0,-1.E0));
#62=VECTOR('',#61,4.E1);
#63=CARTESIAN_POINT('',(3.6E1,3.6E1,4.E1));
#64=LINE('',#63,#62);
#65=CARTESIAN_POINT('',(2.35E1,3.6E1,2.E1));
#66=DIRECTION('',(0.E0,1.E0,0.E0));
#67=DIRECTION('',(0.E0,0.E0,1.E0));
#68=AXIS2_PLACEMENT_3D('',#65,#66,#67);
#70=CARTESIAN_POINT('',(1.65E1,3.6E1,2.E1));
#71=DIRECTION('',(0.E0,1.E0,0.E0));
#72=DIRECTION('',(0.E0,0.E0,-1.E0));
#73=AXIS2_PLACEMENT_3D('',#70,#71,#72);
#75=DIRECTION('',(-1.E0,0.E0,0.E0));
#76=VECTOR('',#75,3.6E1);
#77=CARTESIAN_POINT('',(3.6E1,3.6E1,4.E1));
#78=LINE('',#77,#76);
#79=DIRECTION('',(0.E0,-1.E0,0.E0));
#80=VECTOR('',#79,4.E0);
#81=CARTESIAN_POINT('',(0.E0,4.E1,4.E1));
#82=LINE('',#81,#80);
#83=DIRECTION('',(1.E0,0.E0,0.E0));
#84=VECTOR('',#83,4.E1);
#85=CARTESIAN_POINT('',(0.E0,4.E1,4.E1));
#86=LINE('',#85,#84);
#87=DIRECTION('',(0.E0,-1.E0,0.E0));
#88=VECTOR('',#87,8.E1);
#89=CARTESIAN_POINT('',(4.E1,4.E1,4.E1));
#90=LINE('',#89,#88);
#91=DIRECTION('',(-1.E0,0.E0,0.E0));
#92=VECTOR('',#91,4.E1);
#93=CARTESIAN_POINT('',(4.E1,-4.E1,4.E1));
#94=LINE('',#93,#92);
#95=DIRECTION('',(1.E0,0.E0,0.E0));
#96=VECTOR('',#95,3.6E1);
#97=CARTESIAN_POINT('',(0.E0,-3.6E1,4.E1));
#98=LINE('',#97,#96);
#99=DIRECTION('',(0.E0,1.E0,0.E0));
#100=VECTOR('',#99,7.2E1);
#101=CARTESIAN_POINT('',(3.6E1,-3.6E1,4.E1));
#102=LINE('',#101,#100);
#103=DIRECTION('',(0.E0,0.E0,1.E0));
#104=VECTOR('',#103,4.E1);
#105=CARTESIAN_POINT('',(0.E0,3.6E1,0.E0));
#106=LINE('',#105,#104);
#107=DIRECTION('',(0.E0,-1.E0,0.E0));
#108=VECTOR('',#107,4.E0);
#109=CARTESIAN_POINT('',(0.E0,4.E1,0.E0));
#110=LINE('',#109,#108);
#111=DIRECTION('',(0.E0,0.E0,-1.E0));
#112=VECTOR('',#111,4.E1);
#113=CARTESIAN_POINT('',(4.E1,4.E1,4.E1));
#114=LINE('',#113,#112);
#115=CARTESIAN_POINT('',(4.E1,0.E0,2.E1));
#116=DIRECTION('',(-1.E0,0.E0,0.E0));
#117=DIRECTION('',(0.E0,0.E0,1.E0));
#118=AXIS2_PLACEMENT_3D('',#115,#116,#117);
#120=CARTESIAN_POINT('',(4.E1,0.E0,2.E1));
#121=DIRECTION('',(-1.E0,0.E0,0.E0));
#122=DIRECTION('',(0.E0,0.E0,-1.E0));
#123=AXIS2_PLACEMENT_3D('',#120,#121,#122);
#125=DIRECTION('',(0.E0,0.E0,-1.E0));
#126=VECTOR('',#125,4.E1);
#127=CARTESIAN_POINT('',(4.E1,-4.E1,4.E1));
#128=LINE('',#127,#126);
#129=CARTESIAN_POINT('',(2.35E1,-4.E1,2.E1));
#130=DIRECTION('',(0.E0,1.E0,0.E0));
#131=DIRECTION('',(0.E0,0.E0,1.E0));
#132=AXIS2_PLACEMENT_3D('',#129,#130,#131);
#134=CARTESIAN_POINT('',(1.65E1,-4.E1,2.E1));
#135=DIRECTION('',(0.E0,1.E0,0.E0));
#136=DIRECTION('',(0.E0,0.E0,-1.E0));
#137=AXIS2_PLACEMENT_3D('',#134,#135,#136);
#139=DIRECTION('',(0.E0,0.E0,1.E0));
#140=VECTOR('',#139,4.E1);
#141=CARTESIAN_POINT('',(0.E0,-4.E1,0.E0));
#142=LINE('',#141,#140);
#143=DIRECTION('',(0.E0,1.E0,0.E0));
#144=VECTOR('',#143,4.E0);
#145=CARTESIAN_POINT('',(0.E0,-4.E1,4.E1));
#146=LINE('',#145,#144);
#147=DIRECTION('',(0.E0,0.E0,1.E0));
#148=VECTOR('',#147,4.E1);
#149=CARTESIAN_POINT('',(3.6E1,-3.6E1,0.E0));
#150=LINE('',#149,#148);
#151=DIRECTION('',(0.E0,0.E0,1.E0));
#152=VECTOR('',#151,4.E1);
#153=CARTESIAN_POINT('',(0.E0,-3.6E1,0.E0));
#154=LINE('',#153,#152);
#155=CARTESIAN_POINT('',(2.35E1,-3.6E1,2.E1));
#156=DIRECTION('',(0.E0,-1.E0,0.E0));
#157=DIRECTION('',(0.E0,0.E0,-1.E0));
#158=AXIS2_PLACEMENT_3D('',#155,#156,#157);
#160=CARTESIAN_POINT('',(1.65E1,-3.6E1,2.E1));
#161=DIRECTION('',(0.E0,-1.E0,0.E0));
#162=DIRECTION('',(0.E0,0.E0,1.E0));
#163=AXIS2_PLACEMENT_3D('',#160,#161,#162);
#165=DIRECTION('',(1.E0,0.E0,0.E0));
#166=VECTOR('',#165,7.E0);
#167=CARTESIAN_POINT('',(1.65E1,-3.6E1,2.65E1));
#168=LINE('',#167,#166);
#169=DIRECTION('',(-1.E0,0.E0,0.E0));
#170=VECTOR('',#169,7.E0);
#171=CARTESIAN_POINT('',(2.35E1,-4.E1,2.65E1));
#172=LINE('',#171,#170);
#173=DIRECTION('',(0.E0,-1.E0,0.E0));
#174=VECTOR('',#173,4.E0);
#175=CARTESIAN_POINT('',(2.35E1,-3.6E1,1.35E1));
#176=LINE('',#175,#174);
#177=DIRECTION('',(0.E0,1.E0,0.E0));
#178=VECTOR('',#177,4.E0);
#179=CARTESIAN_POINT('',(2.35E1,-4.E1,2.65E1));
#180=LINE('',#179,#178);
#181=DIRECTION('',(-1.E0,0.E0,0.E0));
#182=VECTOR('',#181,7.E0);
#183=CARTESIAN_POINT('',(2.35E1,-3.6E1,1.35E1));
#184=LINE('',#183,#182);
#185=DIRECTION('',(1.E0,0.E0,0.E0));
#186=VECTOR('',#185,7.E0);
#187=CARTESIAN_POINT('',(1.65E1,-4.E1,1.35E1));
#188=LINE('',#187,#186);
#189=DIRECTION('',(0.E0,-1.E0,0.E0));
#190=VECTOR('',#189,4.E0);
#191=CARTESIAN_POINT('',(1.65E1,-3.6E1,2.65E1));
#192=LINE('',#191,#190);
#193=DIRECTION('',(0.E0,1.E0,0.E0));
#194=VECTOR('',#193,4.E0);
#195=CARTESIAN_POINT('',(1.65E1,-4.E1,1.35E1));
#196=LINE('',#195,#194);
#197=DIRECTION('',(-1.E0,0.E0,0.E0));
#198=VECTOR('',#197,4.E0);
#199=CARTESIAN_POINT('',(4.E1,0.E0,2.525E1));
#200=LINE('',#199,#198);
#201=DIRECTION('',(-1.E0,0.E0,0.E0));
#202=VECTOR('',#201,4.E0);
#203=CARTESIAN_POINT('',(4.E1,0.E0,1.475E1));
#204=LINE('',#203,#202);
#205=DIRECTION('',(1.E0,0.E0,0.E0));
#206=VECTOR('',#205,7.E0);
#207=CARTESIAN_POINT('',(1.65E1,3.6E1,1.35E1));
#208=LINE('',#207,#206);
#209=DIRECTION('',(0.E0,1.E0,0.E0));
#210=VECTOR('',#209,4.E0);
#211=CARTESIAN_POINT('',(2.35E1,3.6E1,2.65E1));
#212=LINE('',#211,#210);
#213=DIRECTION('',(0.E0,-1.E0,0.E0));
#214=VECTOR('',#213,4.E0);
#215=CARTESIAN_POINT('',(2.35E1,4.E1,1.35E1));
#216=LINE('',#215,#214);
#217=DIRECTION('',(-1.E0,0.E0,0.E0));
#218=VECTOR('',#217,7.E0);
#219=CARTESIAN_POINT('',(2.35E1,3.6E1,2.65E1));
#220=LINE('',#219,#218);
#221=DIRECTION('',(0.E0,1.E0,0.E0));
#222=VECTOR('',#221,4.E0);
#223=CARTESIAN_POINT('',(1.65E1,3.6E1,1.35E1));
#224=LINE('',#223,#222);
#225=DIRECTION('',(0.E0,-1.E0,0.E0));
#226=VECTOR('',#225,4.E0);
#227=CARTESIAN_POINT('',(1.65E1,4.E1,2.65E1));
#228=LINE('',#227,#226);
#229=CARTESIAN_POINT('',(1.65E1,-4.E1,1.35E1));
#230=CARTESIAN_POINT('',(1.65E1,-3.6E1,1.35E1));
#231=VERTEX_POINT('',#229);
#232=VERTEX_POINT('',#230);
#233=CARTESIAN_POINT('',(1.65E1,-3.6E1,2.65E1));
#234=CARTESIAN_POINT('',(1.65E1,-4.E1,2.65E1));
#235=VERTEX_POINT('',#233);
#236=VERTEX_POINT('',#234);
#237=CARTESIAN_POINT('',(3.6E1,0.E0,2.525E1));
#238=CARTESIAN_POINT('',(3.6E1,0.E0,1.475E1));
#239=VERTEX_POINT('',#237);
#240=VERTEX_POINT('',#238);
#241=CARTESIAN_POINT('',(2.35E1,-4.E1,2.65E1));
#242=CARTESIAN_POINT('',(2.35E1,-4.E1,1.35E1));
#243=VERTEX_POINT('',#241);
#244=VERTEX_POINT('',#242);
#245=CARTESIAN_POINT('',(2.35E1,3.6E1,2.65E1));
#246=CARTESIAN_POINT('',(2.35E1,4.E1,2.65E1));
#247=VERTEX_POINT('',#245);
#248=VERTEX_POINT('',#246);
#249=CARTESIAN_POINT('',(2.35E1,-3.6E1,1.35E1));
#250=VERTEX_POINT('',#249);
#251=CARTESIAN_POINT('',(2.35E1,-3.6E1,2.65E1));
#252=VERTEX_POINT('',#251);
#253=CARTESIAN_POINT('',(4.E1,0.E0,1.475E1));
#254=VERTEX_POINT('',#253);
#255=CARTESIAN_POINT('',(0.E0,-4.E1,4.E1));
#256=CARTESIAN_POINT('',(0.E0,-3.6E1,4.E1));
#257=VERTEX_POINT('',#255);
#258=VERTEX_POINT('',#256);
#259=CARTESIAN_POINT('',(2.35E1,4.E1,1.35E1));
#260=VERTEX_POINT('',#259);
#261=CARTESIAN_POINT('',(2.35E1,3.6E1,1.35E1));
#262=VERTEX_POINT('',#261);
#263=CARTESIAN_POINT('',(0.E0,-4.E1,0.E0));
#264=VERTEX_POINT('',#263);
#265=CARTESIAN_POINT('',(4.E1,0.E0,2.525E1));
#266=VERTEX_POINT('',#265);
#267=CARTESIAN_POINT('',(1.65E1,3.6E1,1.35E1));
#268=CARTESIAN_POINT('',(1.65E1,4.E1,1.35E1));
#269=VERTEX_POINT('',#267);
#270=VERTEX_POINT('',#268);
#271=CARTESIAN_POINT('',(0.E0,4.E1,0.E0));
#272=CARTESIAN_POINT('',(0.E0,4.E1,4.E1));
#273=VERTEX_POINT('',#271);
#274=VERTEX_POINT('',#272);
#275=CARTESIAN_POINT('',(0.E0,3.6E1,0.E0));
#276=CARTESIAN_POINT('',(0.E0,3.6E1,4.E1));
#277=VERTEX_POINT('',#275);
#278=VERTEX_POINT('',#276);
#279=CARTESIAN_POINT('',(1.65E1,3.6E1,2.65E1));
#280=VERTEX_POINT('',#279);
#281=CARTESIAN_POINT('',(1.65E1,4.E1,2.65E1));
#282=VERTEX_POINT('',#281);
#283=CARTESIAN_POINT('',(0.E0,-3.6E1,0.E0));
#284=VERTEX_POINT('',#283);
#285=CARTESIAN_POINT('',(3.6E1,3.6E1,4.E1));
#286=CARTESIAN_POINT('',(3.6E1,3.6E1,0.E0));
#287=VERTEX_POINT('',#285);
#288=VERTEX_POINT('',#286);
#289=CARTESIAN_POINT('',(3.6E1,-3.6E1,0.E0));
#290=CARTESIAN_POINT('',(3.6E1,-3.6E1,4.E1));
#291=VERTEX_POINT('',#289);
#292=VERTEX_POINT('',#290);
#293=CARTESIAN_POINT('',(4.E1,-4.E1,4.E1));
#294=CARTESIAN_POINT('',(4.E1,-4.E1,0.E0));
#295=VERTEX_POINT('',#293);
#296=VERTEX_POINT('',#294);
#297=CARTESIAN_POINT('',(4.E1,4.E1,4.E1));
#298=CARTESIAN_POINT('',(4.E1,4.E1,0.E0));
#299=VERTEX_POINT('',#297);
#300=VERTEX_POINT('',#298);
#301=CARTESIAN_POINT('',(0.E0,4.E1,4.E1));
#302=DIRECTION('',(0.E0,-1.E0,0.E0));
#303=DIRECTION('',(0.E0,0.E0,-1.E0));
#304=AXIS2_PLACEMENT_3D('',#301,#302,#303);
#305=PLANE('',#304);
#307=ORIENTED_EDGE('',*,*,#306,.F.);
#309=ORIENTED_EDGE('',*,*,#308,.F.);
#311=ORIENTED_EDGE('',*,*,#310,.F.);
#313=ORIENTED_EDGE('',*,*,#312,.F.);
#314=EDGE_LOOP('',(#307,#309,#311,#313));
#315=FACE_OUTER_BOUND('',#314,.F.);
#317=ORIENTED_EDGE('',*,*,#316,.F.);
#319=ORIENTED_EDGE('',*,*,#318,.F.);
#321=ORIENTED_EDGE('',*,*,#320,.F.);
#323=ORIENTED_EDGE('',*,*,#322,.F.);
#324=EDGE_LOOP('',(#317,#319,#321,#323));
#325=FACE_BOUND('',#324,.F.);
#326=ADVANCED_FACE('',(#315,#325),#305,.F.);
#327=CARTESIAN_POINT('',(3.2E1,-3.2E1,0.E0));
#328=DIRECTION('',(0.E0,0.E0,-1.E0));
#329=DIRECTION('',(-1.E0,0.E0,0.E0));
#330=AXIS2_PLACEMENT_3D('',#327,#328,#329);
#331=PLANE('',#330);
#333=ORIENTED_EDGE('',*,*,#332,.T.);
#335=ORIENTED_EDGE('',*,*,#334,.T.);
#337=ORIENTED_EDGE('',*,*,#336,.F.);
#339=ORIENTED_EDGE('',*,*,#338,.T.);
#341=ORIENTED_EDGE('',*,*,#340,.T.);
#342=ORIENTED_EDGE('',*,*,#306,.T.);
#344=ORIENTED_EDGE('',*,*,#343,.T.);
#346=ORIENTED_EDGE('',*,*,#345,.T.);
#347=EDGE_LOOP('',(#333,#335,#337,#339,#341,#342,#344,#346));
#348=FACE_OUTER_BOUND('',#347,.F.);
#349=ADVANCED_FACE('',(#348),#331,.T.);
#350=CARTESIAN_POINT('',(3.6E1,-3.2E1,4.E1));
#351=DIRECTION('',(1.E0,0.E0,0.E0));
#352=DIRECTION('',(0.E0,0.E0,-1.E0));
#353=AXIS2_PLACEMENT_3D('',#350,#351,#352);
#354=PLANE('',#353);
#355=ORIENTED_EDGE('',*,*,#332,.F.);
#357=ORIENTED_EDGE('',*,*,#356,.F.);
#359=ORIENTED_EDGE('',*,*,#358,.F.);
#361=ORIENTED_EDGE('',*,*,#360,.F.);
#362=EDGE_LOOP('',(#355,#357,#359,#361));
#363=FACE_OUTER_BOUND('',#362,.F.);
#365=ORIENTED_EDGE('',*,*,#364,.F.);
#367=ORIENTED_EDGE('',*,*,#366,.F.);
#368=EDGE_LOOP('',(#365,#367));
#369=FACE_BOUND('',#368,.F.);
#370=ADVANCED_FACE('',(#363,#369),#354,.F.);
#371=CARTESIAN_POINT('',(0.E0,3.6E1,4.E1));
#372=DIRECTION('',(0.E0,1.E0,0.E0));
#373=DIRECTION('',(0.E0,0.E0,1.E0));
#374=AXIS2_PLACEMENT_3D('',#371,#372,#373);
#375=PLANE('',#374);
#377=ORIENTED_EDGE('',*,*,#376,.F.);
#378=ORIENTED_EDGE('',*,*,#356,.T.);
#379=ORIENTED_EDGE('',*,*,#345,.F.);
#381=ORIENTED_EDGE('',*,*,#380,.T.);
#382=EDGE_LOOP('',(#377,#378,#379,#381));
#383=FACE_OUTER_BOUND('',#382,.F.);
#385=ORIENTED_EDGE('',*,*,#384,.T.);
#387=ORIENTED_EDGE('',*,*,#386,.F.);
#389=ORIENTED_EDGE('',*,*,#388,.T.);
#391=ORIENTED_EDGE('',*,*,#390,.F.);
#392=EDGE_LOOP('',(#385,#387,#389,#391));
#393=FACE_BOUND('',#392,.F.);
#394=ADVANCED_FACE('',(#383,#393),#375,.F.);
#395=CARTESIAN_POINT('',(1.387778780781E-14,6.644998779893E1,4.E1));
#396=DIRECTION('',(0.E0,0.E0,1.E0));
#397=DIRECTION('',(0.E0,-1.E0,0.E0));
#398=AXIS2_PLACEMENT_3D('',#395,#396,#397);
#399=PLANE('',#398);
#400=ORIENTED_EDGE('',*,*,#376,.T.);
#402=ORIENTED_EDGE('',*,*,#401,.F.);
#403=ORIENTED_EDGE('',*,*,#310,.T.);
#405=ORIENTED_EDGE('',*,*,#404,.T.);
#407=ORIENTED_EDGE('',*,*,#406,.T.);
#409=ORIENTED_EDGE('',*,*,#408,.T.);
#411=ORIENTED_EDGE('',*,*,#410,.T.);
#412=ORIENTED_EDGE('',*,*,#358,.T.);
#413=EDGE_LOOP('',(#400,#402,#403,#405,#407,#409,#411,#412));
#414=FACE_OUTER_BOUND('',#413,.F.);
#415=ADVANCED_FACE('',(#414),#399,.T.);
#416=CARTESIAN_POINT('',(1.387778780781E-14,-6.644998779893E1,4.E1));
#417=DIRECTION('',(1.E0,0.E0,0.E0));
#418=DIRECTION('',(0.E0,1.E0,0.E0));
#419=AXIS2_PLACEMENT_3D('',#416,#417,#418);
#420=PLANE('',#419);
#421=ORIENTED_EDGE('',*,*,#401,.T.);
#422=ORIENTED_EDGE('',*,*,#380,.F.);
#423=ORIENTED_EDGE('',*,*,#343,.F.);
#424=ORIENTED_EDGE('',*,*,#312,.T.);
#425=EDGE_LOOP('',(#421,#422,#423,#424));
#426=FACE_OUTER_BOUND('',#425,.F.);
#427=ADVANCED_FACE('',(#426),#420,.F.);
#428=CARTESIAN_POINT('',(4.E1,3.2E1,4.E1));
#429=DIRECTION('',(-1.E0,0.E0,0.E0));
#430=DIRECTION('',(0.E0,0.E0,1.E0));
#431=AXIS2_PLACEMENT_3D('',#428,#429,#430);
#432=PLANE('',#431);
#433=ORIENTED_EDGE('',*,*,#340,.F.);
#435=ORIENTED_EDGE('',*,*,#434,.F.);
#436=ORIENTED_EDGE('',*,*,#404,.F.);
#437=ORIENTED_EDGE('',*,*,#308,.T.);
#438=EDGE_LOOP('',(#433,#435,#436,#437));
#439=FACE_OUTER_BOUND('',#438,.F.);
#441=ORIENTED_EDGE('',*,*,#440,.F.);
#443=ORIENTED_EDGE('',*,*,#442,.F.);
#444=EDGE_LOOP('',(#441,#443));
#445=FACE_BOUND('',#444,.F.);
#446=ADVANCED_FACE('',(#439,#445),#432,.F.);
#447=CARTESIAN_POINT('',(0.E0,-4.E1,4.E1));
#448=DIRECTION('',(0.E0,1.E0,0.E0));
#449=DIRECTION('',(0.E0,0.E0,1.E0));
#450=AXIS2_PLACEMENT_3D('',#447,#448,#449);
#451=PLANE('',#450);
#452=ORIENTED_EDGE('',*,*,#406,.F.);
#453=ORIENTED_EDGE('',*,*,#434,.T.);
#454=ORIENTED_EDGE('',*,*,#338,.F.);
#456=ORIENTED_EDGE('',*,*,#455,.T.);
#457=EDGE_LOOP('',(#452,#453,#454,#456));
#458=FACE_OUTER_BOUND('',#457,.F.);
#460=ORIENTED_EDGE('',*,*,#459,.T.);
#462=ORIENTED_EDGE('',*,*,#461,.F.);
#464=ORIENTED_EDGE('',*,*,#463,.T.);
#466=ORIENTED_EDGE('',*,*,#465,.F.);
#467=EDGE_LOOP('',(#460,#462,#464,#466));
#468=FACE_BOUND('',#467,.F.);
#469=ADVANCED_FACE('',(#458,#468),#451,.F.);
#470=CARTESIAN_POINT('',(1.387778780781E-14,6.644998779893E1,4.E1));
#471=DIRECTION('',(-1.E0,0.E0,0.E0));
#472=DIRECTION('',(0.E0,-1.E0,0.E0));
#473=AXIS2_PLACEMENT_3D('',#470,#471,#472);
#474=PLANE('',#473);
#475=ORIENTED_EDGE('',*,*,#455,.F.);
#476=ORIENTED_EDGE('',*,*,#336,.T.);
#478=ORIENTED_EDGE('',*,*,#477,.T.);
#479=ORIENTED_EDGE('',*,*,#408,.F.);
#480=EDGE_LOOP('',(#475,#476,#478,#479));
#481=FACE_OUTER_BOUND('',#480,.F.);
#482=ADVANCED_FACE('',(#481),#474,.T.);
#483=CARTESIAN_POINT('',(0.E0,-3.6E1,4.E1));
#484=DIRECTION('',(0.E0,-1.E0,0.E0));
#485=DIRECTION('',(0.E0,0.E0,-1.E0));
#486=AXIS2_PLACEMENT_3D('',#483,#484,#485);
#487=PLANE('',#486);
#488=ORIENTED_EDGE('',*,*,#334,.F.);
#489=ORIENTED_EDGE('',*,*,#360,.T.);
#490=ORIENTED_EDGE('',*,*,#410,.F.);
#491=ORIENTED_EDGE('',*,*,#477,.F.);
#492=EDGE_LOOP('',(#488,#489,#490,#491));
#493=FACE_OUTER_BOUND('',#492,.F.);
#495=ORIENTED_EDGE('',*,*,#494,.T.);
#497=ORIENTED_EDGE('',*,*,#496,.F.);
#499=ORIENTED_EDGE('',*,*,#498,.T.);
#501=ORIENTED_EDGE('',*,*,#500,.F.);
#502=EDGE_LOOP('',(#495,#497,#499,#501));
#503=FACE_BOUND('',#502,.F.);
#504=ADVANCED_FACE('',(#493,#503),#487,.F.);
#505=CARTESIAN_POINT('',(1.65E1,-4.E1,2.65E1));
#506=DIRECTION('',(0.E0,0.E0,1.E0));
#507=DIRECTION('',(1.E0,0.E0,0.E0));
#508=AXIS2_PLACEMENT_3D('',#505,#506,#507);
#509=PLANE('',#508);
#511=ORIENTED_EDGE('',*,*,#510,.T.);
#512=ORIENTED_EDGE('',*,*,#494,.F.);
#514=ORIENTED_EDGE('',*,*,#513,.T.);
#515=ORIENTED_EDGE('',*,*,#463,.F.);
#516=EDGE_LOOP('',(#511,#512,#514,#515));
#517=FACE_OUTER_BOUND('',#516,.F.);
#518=ADVANCED_FACE('',(#517),#509,.F.);
#519=CARTESIAN_POINT('',(2.35E1,-4.E1,2.E1));
#520=DIRECTION('',(0.E0,1.E0,0.E0));
#521=DIRECTION('',(0.E0,0.E0,1.E0));
#522=AXIS2_PLACEMENT_3D('',#519,#520,#521);
#523=CYLINDRICAL_SURFACE('',#522,6.5E0);
#525=ORIENTED_EDGE('',*,*,#524,.F.);
#526=ORIENTED_EDGE('',*,*,#496,.T.);
#527=ORIENTED_EDGE('',*,*,#510,.F.);
#528=ORIENTED_EDGE('',*,*,#461,.T.);
#529=EDGE_LOOP('',(#525,#526,#527,#528));
#530=FACE_OUTER_BOUND('',#529,.F.);
#531=ADVANCED_FACE('',(#530),#523,.F.);
#532=CARTESIAN_POINT('',(1.65E1,-4.E1,1.35E1));
#533=DIRECTION('',(0.E0,0.E0,-1.E0));
#534=DIRECTION('',(-1.E0,0.E0,0.E0));
#535=AXIS2_PLACEMENT_3D('',#532,#533,#534);
#536=PLANE('',#535);
#538=ORIENTED_EDGE('',*,*,#537,.T.);
#539=ORIENTED_EDGE('',*,*,#498,.F.);
#540=ORIENTED_EDGE('',*,*,#524,.T.);
#541=ORIENTED_EDGE('',*,*,#459,.F.);
#542=EDGE_LOOP('',(#538,#539,#540,#541));
#543=FACE_OUTER_BOUND('',#542,.F.);
#544=ADVANCED_FACE('',(#543),#536,.F.);
#545=CARTESIAN_POINT('',(1.65E1,-4.E1,2.E1));
#546=DIRECTION('',(0.E0,1.E0,0.E0));
#547=DIRECTION('',(0.E0,0.E0,1.E0));
#548=AXIS2_PLACEMENT_3D('',#545,#546,#547);
#549=CYLINDRICAL_SURFACE('',#548,6.5E0);
#550=ORIENTED_EDGE('',*,*,#513,.F.);
#551=ORIENTED_EDGE('',*,*,#500,.T.);
#552=ORIENTED_EDGE('',*,*,#537,.F.);
#553=ORIENTED_EDGE('',*,*,#465,.T.);
#554=EDGE_LOOP('',(#550,#551,#552,#553));
#555=FACE_OUTER_BOUND('',#554,.F.);
#556=ADVANCED_FACE('',(#555),#549,.F.);
#557=CARTESIAN_POINT('',(0.E0,0.E0,2.E1));
#558=DIRECTION('',(1.E0,0.E0,0.E0));
#559=DIRECTION('',(0.E0,0.E0,-1.E0));
#560=AXIS2_PLACEMENT_3D('',#557,#558,#559);
#561=CYLINDRICAL_SURFACE('',#560,5.25E0);
#563=ORIENTED_EDGE('',*,*,#562,.F.);
#564=ORIENTED_EDGE('',*,*,#440,.T.);
#566=ORIENTED_EDGE('',*,*,#565,.T.);
#567=ORIENTED_EDGE('',*,*,#364,.T.);
#568=EDGE_LOOP('',(#563,#564,#566,#567));
#569=FACE_OUTER_BOUND('',#568,.F.);
#570=ADVANCED_FACE('',(#569),#561,.F.);
#571=CARTESIAN_POINT('',(0.E0,0.E0,2.E1));
#572=DIRECTION('',(1.E0,0.E0,0.E0));
#573=DIRECTION('',(0.E0,0.E0,-1.E0));
#574=AXIS2_PLACEMENT_3D('',#571,#572,#573);
#575=CYLINDRICAL_SURFACE('',#574,5.25E0);
#576=ORIENTED_EDGE('',*,*,#366,.T.);
#577=ORIENTED_EDGE('',*,*,#565,.F.);
#578=ORIENTED_EDGE('',*,*,#442,.T.);
#579=ORIENTED_EDGE('',*,*,#562,.T.);
#580=EDGE_LOOP('',(#576,#577,#578,#579));
#581=FACE_OUTER_BOUND('',#580,.F.);
#582=ADVANCED_FACE('',(#581),#575,.F.);
#583=CARTESIAN_POINT('',(1.65E1,-4.E1,1.35E1));
#584=DIRECTION('',(0.E0,0.E0,-1.E0));
#585=DIRECTION('',(-1.E0,0.E0,0.E0));
#586=AXIS2_PLACEMENT_3D('',#583,#584,#585);
#587=PLANE('',#586);
#589=ORIENTED_EDGE('',*,*,#588,.T.);
#590=ORIENTED_EDGE('',*,*,#384,.F.);
#592=ORIENTED_EDGE('',*,*,#591,.T.);
#593=ORIENTED_EDGE('',*,*,#320,.T.);
#594=EDGE_LOOP('',(#589,#590,#592,#593));
#595=FACE_OUTER_BOUND('',#594,.F.);
#596=ADVANCED_FACE('',(#595),#587,.F.);
#597=CARTESIAN_POINT('',(2.35E1,-4.E1,2.E1));
#598=DIRECTION('',(0.E0,1.E0,0.E0));
#599=DIRECTION('',(0.E0,0.E0,1.E0));
#600=AXIS2_PLACEMENT_3D('',#597,#598,#599);
#601=CYLINDRICAL_SURFACE('',#600,6.5E0);
#603=ORIENTED_EDGE('',*,*,#602,.F.);
#604=ORIENTED_EDGE('',*,*,#386,.T.);
#605=ORIENTED_EDGE('',*,*,#588,.F.);
#606=ORIENTED_EDGE('',*,*,#318,.T.);
#607=EDGE_LOOP('',(#603,#604,#605,#606));
#608=FACE_OUTER_BOUND('',#607,.F.);
#609=ADVANCED_FACE('',(#608),#601,.F.);
#610=CARTESIAN_POINT('',(1.65E1,-4.E1,2.65E1));
#611=DIRECTION('',(0.E0,0.E0,1.E0));
#612=DIRECTION('',(1.E0,0.E0,0.E0));
#613=AXIS2_PLACEMENT_3D('',#610,#611,#612);
#614=PLANE('',#613);
#616=ORIENTED_EDGE('',*,*,#615,.T.);
#617=ORIENTED_EDGE('',*,*,#388,.F.);
#618=ORIENTED_EDGE('',*,*,#602,.T.);
#619=ORIENTED_EDGE('',*,*,#316,.T.);
#620=EDGE_LOOP('',(#616,#617,#618,#619));
#621=FACE_OUTER_BOUND('',#620,.F.);
#622=ADVANCED_FACE('',(#621),#614,.F.);
#623=CARTESIAN_POINT('',(1.65E1,-4.E1,2.E1));
#624=DIRECTION('',(0.E0,1.E0,0.E0));
#625=DIRECTION('',(0.E0,0.E0,1.E0));
#626=AXIS2_PLACEMENT_3D('',#623,#624,#625);
#627=CYLINDRICAL_SURFACE('',#626,6.5E0);
#628=ORIENTED_EDGE('',*,*,#591,.F.);
#629=ORIENTED_EDGE('',*,*,#390,.T.);
#630=ORIENTED_EDGE('',*,*,#615,.F.);
#631=ORIENTED_EDGE('',*,*,#322,.T.);
#632=EDGE_LOOP('',(#628,#629,#630,#631));
#633=FACE_OUTER_BOUND('',#632,.F.);
#634=ADVANCED_FACE('',(#633),#627,.F.);
#635=CLOSED_SHELL('',(#326,#349,#370,#394,#415,#427,#446,#469,#482,#504,#518,
#531,#544,#556,#570,#582,#596,#609,#622,#634));
#636=MANIFOLD_SOLID_BREP('',#635);
#638=DIMENSIONAL_EXPONENTS(0.E0,0.E0,0.E0,0.E0,0.E0,0.E0,0.E0);
#640=PLANE_ANGLE_MEASURE_WITH_UNIT(PLANE_ANGLE_MEASURE(1.745329251994E-2),#639);
#641=(CONVERSION_BASED_UNIT('DEGREE',#640)NAMED_UNIT(*)PLANE_ANGLE_UNIT());
#643=UNCERTAINTY_MEASURE_WITH_UNIT(LENGTH_MEASURE(9.797567052774E-3),#637,
'closure',
'Maximum model space distance between geometric entities at asserted connectivities');
#644=(GEOMETRIC_REPRESENTATION_CONTEXT(3)GLOBAL_UNCERTAINTY_ASSIGNED_CONTEXT((
#643))GLOBAL_UNIT_ASSIGNED_CONTEXT((#637,#641,#642))REPRESENTATION_CONTEXT
('ID1','3'));
#646=APPLICATION_CONTEXT(
'CONFIGURATION CONTROLLED 3D DESIGNS OF MECHANICAL PARTS AND ASSEMBLIES');
#647=APPLICATION_PROTOCOL_DEFINITION('international standard',
'config_control_design',1994,#646);
#648=DESIGN_CONTEXT('',#646,'design');
#649=MECHANICAL_CONTEXT('',#646,'mechanical');
#650=PRODUCT('6356109','6356109','NOT SPECIFIED',(#649));
#651=PRODUCT_DEFINITION_FORMATION_WITH_SPECIFIED_SOURCE('2','LAST_VERSION',#650,
.MADE.);
#655=PRODUCT_CATEGORY('part','');
#656=PRODUCT_RELATED_PRODUCT_CATEGORY('detail','',(#650));
#657=PRODUCT_CATEGORY_RELATIONSHIP('','',#655,#656);
#658=SECURITY_CLASSIFICATION_LEVEL('unclassified');
#659=SECURITY_CLASSIFICATION('','',#658);
#660=CC_DESIGN_SECURITY_CLASSIFICATION(#659,(#651));
#661=APPROVAL_STATUS('approved');
#662=APPROVAL(#661,'');
#663=CC_DESIGN_APPROVAL(#662,(#659,#651,#652));
#664=CALENDAR_DATE(113,26,1);
#665=COORDINATED_UNIVERSAL_TIME_OFFSET(1,0,.AHEAD.);
#666=LOCAL_TIME(15,14,1.E0,#665);
#667=DATE_AND_TIME(#664,#666);
#668=APPROVAL_DATE_TIME(#667,#662);
#669=DATE_TIME_ROLE('creation_date');
#670=CC_DESIGN_DATE_AND_TIME_ASSIGNMENT(#667,#669,(#652));
#671=DATE_TIME_ROLE('classification_date');
#672=CC_DESIGN_DATE_AND_TIME_ASSIGNMENT(#667,#671,(#659));
#673=PERSON('UNSPECIFIED','UNSPECIFIED',$,$,$,$);
#674=ORGANIZATION('UNSPECIFIED','UNSPECIFIED','UNSPECIFIED');
#675=PERSON_AND_ORGANIZATION(#673,#674);
#676=APPROVAL_ROLE('approver');
#677=APPROVAL_PERSON_ORGANIZATION(#675,#662,#676);
#678=PERSON_AND_ORGANIZATION_ROLE('creator');
#679=CC_DESIGN_PERSON_AND_ORGANIZATION_ASSIGNMENT(#675,#678,(#651,#652));
#680=PERSON_AND_ORGANIZATION_ROLE('design_supplier');
#681=CC_DESIGN_PERSON_AND_ORGANIZATION_ASSIGNMENT(#675,#680,(#651));
#682=PERSON_AND_ORGANIZATION_ROLE('classification_officer');
#683=CC_DESIGN_PERSON_AND_ORGANIZATION_ASSIGNMENT(#675,#682,(#659));
#684=PERSON_AND_ORGANIZATION_ROLE('design_owner');
#685=CC_DESIGN_PERSON_AND_ORGANIZATION_ASSIGNMENT(#675,#684,(#650));
#13=CIRCLE('',#12,6.5E0);
#22=CIRCLE('',#21,6.5E0);
#55=CIRCLE('',#54,5.25E0);
#60=CIRCLE('',#59,5.25E0);
#69=CIRCLE('',#68,6.5E0);
#74=CIRCLE('',#73,6.5E0);
#119=CIRCLE('',#118,5.25E0);
#124=CIRCLE('',#123,5.25E0);
#133=CIRCLE('',#132,6.5E0);
#138=CIRCLE('',#137,6.5E0);
#159=CIRCLE('',#158,6.5E0);
#164=CIRCLE('',#163,6.5E0);
#306=EDGE_CURVE('',#300,#273,#46,.T.);
#308=EDGE_CURVE('',#299,#300,#114,.T.);
#310=EDGE_CURVE('',#274,#299,#86,.T.);
#312=EDGE_CURVE('',#273,#274,#4,.T.);
#316=EDGE_CURVE('',#248,#282,#8,.T.);
#318=EDGE_CURVE('',#260,#248,#13,.T.);
#320=EDGE_CURVE('',#270,#260,#17,.T.);
#322=EDGE_CURVE('',#282,#270,#22,.T.);
#332=EDGE_CURVE('',#288,#291,#26,.T.);
#334=EDGE_CURVE('',#291,#284,#30,.T.);
#336=EDGE_CURVE('',#264,#284,#34,.T.);
#338=EDGE_CURVE('',#264,#296,#38,.T.);
#340=EDGE_CURVE('',#296,#300,#42,.T.);
#343=EDGE_CURVE('',#273,#277,#110,.T.);
#345=EDGE_CURVE('',#277,#288,#50,.T.);
#356=EDGE_CURVE('',#287,#288,#64,.T.);
#358=EDGE_CURVE('',#292,#287,#102,.T.);
#360=EDGE_CURVE('',#291,#292,#150,.T.);
#364=EDGE_CURVE('',#240,#239,#55,.T.);
#366=EDGE_CURVE('',#239,#240,#60,.T.);
#376=EDGE_CURVE('',#287,#278,#78,.T.);
#380=EDGE_CURVE('',#277,#278,#106,.T.);
#384=EDGE_CURVE('',#269,#262,#208,.T.);
#386=EDGE_CURVE('',#247,#262,#69,.T.);
#388=EDGE_CURVE('',#247,#280,#220,.T.);
#390=EDGE_CURVE('',#269,#280,#74,.T.);
#401=EDGE_CURVE('',#274,#278,#82,.T.);
#404=EDGE_CURVE('',#299,#295,#90,.T.);
#406=EDGE_CURVE('',#295,#257,#94,.T.);
#408=EDGE_CURVE('',#257,#258,#146,.T.);
#410=EDGE_CURVE('',#258,#292,#98,.T.);
#434=EDGE_CURVE('',#295,#296,#128,.T.);
#440=EDGE_CURVE('',#266,#254,#119,.T.);
#442=EDGE_CURVE('',#254,#266,#124,.T.);
#455=EDGE_CURVE('',#264,#257,#142,.T.);
#459=EDGE_CURVE('',#231,#244,#188,.T.);
#461=EDGE_CURVE('',#243,#244,#133,.T.);
#463=EDGE_CURVE('',#243,#236,#172,.T.);
#465=EDGE_CURVE('',#231,#236,#138,.T.);
#477=EDGE_CURVE('',#284,#258,#154,.T.);
#494=EDGE_CURVE('',#235,#252,#168,.T.);
#496=EDGE_CURVE('',#250,#252,#159,.T.);
#498=EDGE_CURVE('',#250,#232,#184,.T.);
#500=EDGE_CURVE('',#235,#232,#164,.T.);
#510=EDGE_CURVE('',#243,#252,#180,.T.);
#513=EDGE_CURVE('',#235,#236,#192,.T.);
#524=EDGE_CURVE('',#250,#244,#176,.T.);
#537=EDGE_CURVE('',#231,#232,#196,.T.);
#562=EDGE_CURVE('',#266,#239,#200,.T.);
#565=EDGE_CURVE('',#254,#240,#204,.T.);
#588=EDGE_CURVE('',#260,#262,#216,.T.);
#591=EDGE_CURVE('',#269,#270,#224,.T.);
#602=EDGE_CURVE('',#247,#248,#212,.T.);
#615=EDGE_CURVE('',#282,#280,#228,.T.);
#637=(LENGTH_UNIT()NAMED_UNIT(*)SI_UNIT(.MILLI.,.METRE.));
#639=(NAMED_UNIT(*)PLANE_ANGLE_UNIT()SI_UNIT($,.RADIAN.));
#642=(NAMED_UNIT(*)SI_UNIT($,.STERADIAN.)SOLID_ANGLE_UNIT());
#645=ADVANCED_BREP_SHAPE_REPRESENTATION('',(#636),#644);
#652=PRODUCT_DEFINITION('design','',#651,#648);
#653=PRODUCT_DEFINITION_SHAPE('','SHAPE FOR 6356109.',#652);
#654=SHAPE_DEFINITION_REPRESENTATION(#653,#645);
ENDSEC;
END-ISO-10303-21;
